The Beatles

Drive My Car

Drive My Car by The Beatles Bass Tab and Video Lesson

Level: Intermediate

Genre:Rock

Instrument:4 String Bass

NOTES

How to play Drive My Car by The Beatles in Bass Guitar.

Intro and Verse

G|------------------------------------5--7-----|-------------------|
D|---------------------------------7--------0--|--L----------------|
A|---------------------------------------------|-------------------|
E|---------------------------------------------|-------------------|


G|----------------2---------|--------------------------|
D|--0----L---2-4-----4-2-0--|----------------0---------|
A|--------------------------|-----------0-2-----2-0----|
E|--------------------------|--3----L---------------3--|


G|----------------2---------|--------------------------|
D|--0----L---2-4-----4-2-0--|----------------0---------|
A|--------------------------|-----------0-2-----2-0----|
E|--------------------------|--3----L---------------3--|


G|----------------2---------|--------------------------|----------------------|
D|--0----L---2-4-----4-2-0--|----------------0---------|----------------------|
A|--------------------------|-----------0-2-----2-0----|--0----0----0----0----|
E|--------------------------|--3----L---------------3--|----------------------|


G|--------------------------||
D|----------------2--4-2----||
A|--0----0---2-4---------4--||
E|--------------------------||



G|----------------------------------------|-----------------------|
D|----------------------------------------|-----------------------|
A|--2---------------------2----2----2--0--|--------------------0--|
E|----------------------------------------|--3----3----3----3-----|


G|-----------------------|-----------------------|----------------------|
D|-----------------------|-----------------------|----------------------|
A|--2----2----2----2--0--|--------------------0--|--2----2----2----2----|
E|-----------------------|--3----3----3----3-----|----------------------|


G|--------------------------|-------------------------|-------------------------||
D|--------------------------|--0----0---0----0--------|----------------2--------||
A|--------------0-----------|-------------2-----2-----|--0----0---0-4-----4--0--||
E|--0--2--3--0-----3--2--0--|----------------------3--|-------------------------||



G|-------------------------2---------|--------------------------|
D|--0-------------------4-----4-2-0--|----------------0--2-0----|
A|-----------------------------------|-------------2---------2--|
E|-----------------------------------|--3----L---3--------------|


G|--------------2---------|--------------------------|--------------2---------|
D|--0--------4-----4-2-0--|----------------0--2-0----|--0--------4-----4-2-0--|
A|------------------------|-------------2---------2--|------------------------|
E|------------------------|--3----L---3--------------|------------------------|


G|--------------------------|----------------------|---------------------------||
D|----------------0--2-0----|----------------------|-----------------2--4-2----||
A|-------------2---------2--|--0----0----0----0----|--0--0--0--0--4---------4--||
E|--3----L---3--------------|----------------------|---------------------------||



G|------------------------|-----------------------|----------2--------------|
D|--0----0----------------|-----------------------|--0----4--------------0--|
A|------------------2-----|--0----0----0--0----0--|-------------------2-----|
E|------------3--3-----3--|-----------------------|-------------3--3--------|


G|-------------------------||
D|-------------------------||
A|--------4--4--7--7--7----||
E|--5--5-------------------||



Leave your comments about this lesson