The Beatles

I Saw Her Standing There

I Saw Her Standing There by The Beatles Bass Tab and Video Lesson

160 BPM 160 BPM

Level: Easy

Genre:Rock

Instrument:4 String Bass

NOTES

Let's play an easy music by The Beatles. Learn to play in this lesson I Saw Her Standing There.

G|-----------------------------|--------------------------|
D|-----------6-----9-----7--6--|--------6-----9-----7--6--|
A|--7-----7-----7-----7--------|--7--7-----7-----7--------|
E|-----------------------------|--------------------------|


G|--------------------------|--------------------------|
D|--------6-----9-----7--6--|--------6-----9-----7--6--|
A|--7--7-----7-----7--------|--7--7-----7-----7--------|
E|--------------------------|--------------------------|


G|--------------------------|--------------------------|
D|--------6-----9-----7--6--|--------6-----9-----7--6--|
A|--7--7-----7-----7--------|--7--7-----7-----7--------|
E|--------------------------|--------------------------|


G|--------------------------|--------------------------|
D|--------------------------|--------6-----9-----7--6--|
A|--------4-----7-----5--4--|--7--7-----7-----7--------|
E|--5--5-----5-----5--------|--------------------------|


G|--------------------------|--------------------------|
D|--------6-----9-----7--6--|--------6-----9-----7--6--|
A|--7--7-----7-----7--------|--7--7-----7-----7--------|
E|--------------------------|--------------------------|


G|--------------------------|--------------------------||
D|--------------------------|--------------------------||
A|--------6-----9-----7--6--|--------6-----9-----7--6--||
E|--7--7-----7-----7--------|--7--7-----7-----7--------||



G|------------------------|----------------------|----------------------|
D|------------------------|--6----6----6----6----|--7----7----7----7----|
A|--7------7----7----7----|----------------------|----------------------|
E|------------------------|----------------------|----------------------|


G|--5----5----5----5----|--------------------------|--------------------------|
D|----------------------|--------6-----9-----7--6--|--------------------------|
A|----------------------|--7--7-----7-----7--------|--------6-----9-----7--6--|
E|----------------------|--------------------------|--7--7-----7-----7--------|


G|--------------------------|--------------------------||
D|--------6-----9-----7--6--|--------6-----9-----7--6--||
A|--7--7-----7-----7--------|--7--7-----7-----7--------||
E|--------------------------|--------------------------||



G|-------------------------|--------------------------|
D|-------------------------|--------------------------|
A|--7-------5----4---------|--------4-----7-----5--4--|
E|--------------------7----|--5--5-----5-----5--------|


G|--------------------------|--------------------------|
D|--------------------------|--------------------------|
A|--------4-----7-----5--4--|--------4-----7-----5--4--|
E|--5--5-----5-----5--------|--5--5-----5-----5--------|


G|--------------------------|--------------------------|
D|--------------------------|--------------------------|
A|--------4-----7-----5--4--|--------4-----7-----5--4--|
E|--5--5-----5-----5--------|--5--5-----5-----5--------|


G|--------------------------|--------------------------|
D|--------------------------|--------------------------|
A|--------4-----7-----5--4--|--------6-----9-----7--6--|
E|--5--5-----5-----5--------|--7--7-----7-----7--------|


G|--------------------------|--------------------------|
D|--------------------------|--------------------------|
A|--------6-----9-----7--6--|--------4-----7-----5--4--|
E|--7--7-----7-----7--------|--5--5-----5-----5--------|


G|--------------------------||
D|--------------------------||
A|--------4-----7-----5--4--||
E|--5--5-----5-----5--------||



Guitar Solo

G|-----------------------------------|--------------------------|
D|-----------------6-----9-----7--6--|--------6-----9-----7--6--|
A|--7-----------7-----7-----7--------|--7--7-----7-----7--------|
E|-----------------------------------|--------------------------|


G|--------------------------|--------------------------|
D|--------6-----9-----7--6--|--------6-----9-----7--6--|
A|--7--7-----7-----7--------|--7--7-----7-----7--------|
E|--------------------------|--------------------------|


G|--------------------------|--------------------------|
D|--------6-----9-----7--6--|--------6-----9-----------|
A|--7--7-----7-----7--------|--7--7-----7-----7--7--5--|
E|--------------------------|--------------------------|


G|--------------------------|--------------------------|
D|--------------------------|--------------------------|
A|--------6-----9-----7--6--|--------6-----------------|
E|--7--7-----7-----7--------|--7--7-----7--7-----6-----|


G|--------------------------|-------------------------|--------------------------|
D|--------------------------|--------------6----7--9--|--7--7--7--7--7--7--7--7--|
A|--7--7--7--7--7--7--7--7--|--7--7--7--7-------------|--------------------------|
E|--------------------------|-------------------------|--------------------------|


G|--------------------------|--------------------------|-------------------------|
D|--7--7--7--7--7--7--7--9--|--------6-----9-----7--6--|-------------7--7--6-----|
A|--------------------------|--7--7-----7-----7--------|-------6--9-----------9--|
E|--------------------------|--------------------------|--7----------------------|


G|------------------------|----------------------||
D|-------6-----9--9--7----|----------------------||
A|--7-------7-------------|--7----5----4---------||
E|------------------------|-----------------7----||



G|-----------------------------|--------------------------|
D|-----------6-----9-----7--6--|--------------------------|
A|--7-----7-----7-----7--------|--------6-----9-----7--6--|
E|-----------------------------|--7--7-----7-----7--------|


G|--------------------------|-----------9------------|-------------------||
D|--7--7--7--7--7--7--7--7--|-----6--9---------------|-------------------||
A|--------------------------|--7----------------7----|--L----------------||
E|--------------------------|------------------------|-------------------||



Leave your comments about this lesson