The Beatles

Sgt. Pepper's Lonely Hearts Club Band

Sgt. Pepper's Lonely Hearts Club Band by The Beatles Bass Tab and Video Lesson

Level: Easy

Genre:Rock

Instrument:4 String Bass

NOTES

How to play Sgt. Pepper's Lonely Hearts Club Band by The Beatles in Bass Guitar.

G|---------------------------------------------------------------------| 
D|---------------------------------------------------------------------| 
A|---------------------------------------------------------------------| 
E|--5--------------------------------------------5--5--5--5--5--5--5-4-| 

G|-----------------------------|--------------------------|---------------------| 
D|-----------------------------|--------------------------|---------------------| 
A|-----------------------------|--3--3--3--3--3--3--3--3--|---------------------| 
E|--5--5--5--5-4-5--5-4-5--5-4-|--------------------------|--3------------------| 



G|----------------------------------------------------------------------| 
D|----------------------------------------------------------------------| 
A|----------------------------------------------------------------------| 
E|--3----------------------------------------------3--3-----5--5--5-----| 

G|--------------------------|--------------------------| 
D|--------------------------|--------------------------| 
A|--3--3--3---5-------------|------------------------2-| 
E|--------------3--3--3-----|--3--3--3-----5--5--5-----| 

G|--------------------------|----------------------------| 
D|--------------------------|----------------------------| 
A|--3--3--3---5-------------|--------------------------2-| 
E|--------------3--3--3-----|--5--5--5--5-4-5--5--5--5---| 

G|--------------------------|--------------------------| 
D|--------------------------|--------------------------| 
A|--3--3--3--3--3--3--3--3--|--------2--2--3--3--4--5--| 
E|--------------------------|--3--3--------------------| 

G|--------------------------| 
D|--------------------------| 
A|--------2--2--5--5--2--2--| 
E|--3--3--------------------| 



Pre-Chorus

G|-------------------------------------------------------------------------| 
D|-------------------------------------------------------------------------| 
A|--3-------------------------------------------------3--1--1--0--0--------| 
E|-------------------------------------------------------------------3--3--| 

G|--------------------------|--------------------------| 
D|--3--3--0--0--------------|--------------------------| 
A|--------------3--3--0--1--|--3--3--3--3--3--3--3--4--| 
E|--------------------------|--------------------------| 

G|--------------------------|------------------------| 
D|--------------------------|------------------------| 
A|--5--0--5--0--5--0--5--0--|--5--0--5--0--5---------| 
E|--------------------------|------------------------| 



G|-------------------------------------------------------------------| 
D|-------------------------------------------------------------------| 
A|--------------------------------------------------------1--1-------| 
E|--3---------------------------------------------3------------------| 

G|------------------------|--------------------------|--------------------------| 
D|------------------------|--------------------------|--------------------------| 
A|--3--3------------------|--3--3--1--1--0--0--------|--------------------------| 
E|-------------3--3-------|--------------------3--1--|--3--3--3--1--3--3--3--2--| 

G|------------------------|------------------------|--------------------------| 
D|------------------------|------------------------|--------------------------| 
A|-------------1--1-------|--3--3------------------|--------------------------| 
E|--3--3------------------|-------------3--3-------|--5--5--5--0--5--5--5--0--| 

G|--------------------|--------------------------|--------------------------| 
D|--------------------|--------------------------|--------------------------| 
A|--5-----------------|--3--3--3-----3--3--3-----|-----------5--------------| 
E|--------------------|-----------3-----------3--|--3--3--3-----3--3--3--4--| 

G|--------------------------|------------------------| 
D|--------------------------|------------------------| 
A|-----------------------3--|--L--5----------5-------| 
E|--5--5--5--4--5--5--5-----|----------3--L-----3----| 



Intermezzo

G|-------------------------------------------------------------------------| 
D|-------------------------------------------------------------------------| 
A|--3-------------------------------------------------3--1--1--0--0--------| 
E|-------------------------------------------------------------------3--3--| 

G|--------------------------|--------------------------| 
D|--------------------------|--------------------------| 
A|--------0--0--3--3--0-----|--3--3--1--1--0--0--------| 
E|--1--1-----------------3--|--------------------3--3--| 

G|--------------------------|------------------------| 
D|--------------------------|------------------------| 
A|--5--0--5--0--5--2--0--2--|--5--0--5--0--5---------| 
E|--------------------------|------------------------| 



G|--------------------------------------------------------------------| 
D|--------------------------------------------------------------------| 
A|--3--------------------------------------------3--1--1--0--0--------| 
E|--------------------------------------------------------------3--3--| 

G|--------------------------|-------------------| 
D|--------------------------|-------------------| 
A|--3--3--1--1--0--0--------|--3----------------| 
E|--------------------3--3--|-------------------| 



Leave your comments about this lesson