The Police

Every Breath You Take

Every Breath You Take by The Police Bass Tab and Video Lesson

116 BPM 116 BPM

Level: Beginner

Genre:Rock

Instrument:4 String Bass

NOTES

Learn how to play Every Breath You Take by The Police in Bass Guitar.

G|--------------------------------------|--------------------------|
D|--------------------------------------|--------------------------|
A|--------------------------------------|--------------------------|
E|-----------------------------------0--|--5--5--5--5--5--5--5--5--|


G|--------------------------|---------------------------|
D|--------------------------|---------------------------|
A|--------------------------|---------------------------|
E|--5--5--5--5--5--5--5--5--|--2--2-2-2--2--2--2--2--2--|


G|---------------------------|-----------------------------|
D|---------------------------|-----------------------------|
A|---------------------------|--5----5----5----5--5--5--7--|
E|--2--2--2--2--2--2-2-2--2--|-----------------------------|


G|--------------------------|--------------------------|
D|--------------------------|--------------------------|
A|--7--7--7--7--7--7--7--7--|--------------------------|
E|--------------------------|--5--5--5--5--5--5--5--5--|


G|--------------------------||
D|--------------------------||
A|--------------------------||
E|--5--5--5--5--5--5--5--5--||



Verse 1 and 2

G|--------------------------------------------------------------|
D|--------------------------------------------------------------|
A|--------------------------------------------------------------|
E|--5--------------------------------------5--5--5--5--5--5--5--|


G|---------------------------|---------------------------|
D|---------------------------|---------------------------|
A|---------------------------|---------------------------|
E|--5--5--5--5--5--5--5--5\--|--2--2--2--2--2--2-2-2--2--|


G|--------------------------|--------------------------|
D|--------------------------|--------------------------|
A|--------------------------|--5--5--5--5--5--5--5--5--|
E|--2--2--2--2--2--2--2--2--|--------------------------|


G|--------------------------|---------------------------|
D|--------------------------|---------------------------|
A|--7--7--7--7--7--7--7--7--|--/9--9--9--9--9--7-----9--|
E|--------------------------|---------------------------|


G|---------------------------|--------------------------|
D|---------------------------|--------------------------|
A|--9--9--9--9--9--9--7--7\--|--------------------------|
E|---------------------------|--5--5--5--5--5--5--5--5--|


G|---------------------------|---------------------------|
D|---------------------------|---------------------------|
A|---------------------------|---------------------------|
E|--5--5-5-5--5--5--5--5--5--|--2--2--2--2--2-2-2--2--2--|


G|--------------------------|--------------------------|
D|--------------------------|--------------------------|
A|--------------------------|--5--5--5--5--5--5--5--7--|
E|--2--2--2--2--2--2--2--2--|--------------------------|


G|--------------------------|--------------------------|
D|--------------------------|--------------------------|
A|--7--7--7--7--7--7--7--7--|--------------------------|
E|--------------------------|--5--5--5--5--5--5--5--5--|


G|--------------------------||
D|--------------------------||
A|-----------------------4--||
E|--5--5--5--5--5--5--5-----||



G|-------------------------------------------------------|
D|-------------------------------------------------------|
A|--5-------------------------------5--5--5--5--5--5--5--|
E|-------------------------------------------------------|


G|--------------------------|--------------------------|
D|--------------------------|--------------------------|
A|--5--3--3--3--3--3--3--5--|--------------------------|
E|--------------------------|--5--5--5--5--5--5--5--5--|


G|--------------------------|--------------------------|
D|--------------------------|--------------------------|
A|--------------------------|--------------------------|
E|--5--5--5--5--5--5--5--6--|--7--7--7--7--7--7--7--7--|


G|--------------------------|--------------------------|
D|--------------------------|--------------------------|
A|--------------------------|--7--7--7--7--7--7--7--7--|
E|--7--7--7--7--7--7--7--7--|--------------------------|


G|--------------------------|--------------------------|
D|--------------------------|--------------------------|
A|--7--7--7--7--7--7--7--7--|--------------------------|
E|--------------------------|--5--5--5--5--5--5--5--5--|


G|--------------------------|--------------------------|
D|--------------------------|--------------------------|
A|--------------------------|--------------------------|
E|--5--5--5--5--5--5--5--5--|--2--2--2--2--2--2--2--2--|


G|---------------------------|--------------------------|
D|---------------------------|--------------------------|
A|---------------------------|--5--5--5--5--5--5--5--7--|
E|--2--2--2--2--2--2--2--2/--|--------------------------|


G|--------------------------|--------------------------|
D|--------------------------|--4--4--4--4--4--4--4--4--|
A|--7--7--7--7--7--7--7--7--|--------------------------|
E|--------------------------|--------------------------|


G|--------------------------||
D|--4--4--4--4--4--4--4--4--||
A|--------------------------||
E|--------------------------||



G|------------------------------------------------------|
D|--3------------------------------3-----3--3--3-----3--|
A|------------------------------------------------------|
E|------------------------------------1-----------1-----|


G|--------------------------|--------------------------|
D|--3--3-----3--3--3-----3--|--------5-----------5-----|
A|--------------------------|--------------------------|
E|--------1-----------1-----|--3--3-----3--3--3-----3--|


G|--------------------------|--------------------------|
D|--------5--------5-----5--|--------3-----------3-----|
A|--------------------------|--------------------------|
E|--3--3-----3--3-----3-----|--1--1-----1--1--1-----1--|


G|--------------------------|--------------------------|
D|--------3--------3-----3--|--------5-----------5-----|
A|--------------------------|--------------------------|
E|--1--1-----1--1-----1-----|--3--3-----3--3--3-----3--|


G|--------------------------|--------------------------|
D|--------5--------5-----5--|--------3-----------3-----|
A|--------------------------|--------------------------|
E|--3--3-----3--3-----3-----|--1--1-----1--1--1-----1--|


G|--------------------------||---------------------------|
D|--------3--------3-----3--||*--------------------------|
A|--------------------------||*--------------------------|
E|--1--1-----1--1-----1-----||---5--5--5--5--5--5--5--5--|


G|--------------------------|--------------------------|
D|--------------------------|--------------------------|
A|--------------------------|--------------------------|
E|--5--5--5--5--5--5--5--5--|--2--2--2--2--2--2--2--2--|


G|---------------------------|--------------------------|
D|---------------------------|--------------------------|
A|---------------------------|--5--5--5--5--5--5--5--7--|
E|--2--2--2--2--2--2--2--2/--|--------------------------|


G|--------------------------|--------------------------|
D|--------------------------|--------------------------|
A|--7--7--7--7--7--7--7--7--|--------------------------|
E|--------------------------|--2--2--2--2--2--2--2--2--|


G|---------------------------||--------------------------|
D|--------------4--2--2--2--*||--------------------------|
A|--------------------------*||--------------------------|
E|--2--2--2--2---------------||--5--5--5--5--5--5--5--5--|


G|--------------------------||
D|--------------------------||
A|-----------------------4--||
E|--5--5--5--5--5--5--5-----||



G|-------------------------------------------------------|
D|-------------------------------------------------------|
A|--5-------------------------------5--5--5--5--5--5--5--|
E|-------------------------------------------------------|


G|--------------------------|--------------------------|
D|--------------------------|--------------------------|
A|--3--3--3--3--3--3--3--5--|--------------------------|
E|--------------------------|--5--5--5--5--5--5--5--5--|


G|--------------------------|--------------------------|
D|--------------------------|--------------------------|
A|--------------------------|--------------------------|
E|--5--5--5--5--5--5--5--6--|--7--7--7--7--7--7--7--7--|


G|--------------------------|--------------------------|
D|--------------------------|--------------------------|
A|--------------------------|--7--7--7--7--7--7--7--7--|
E|--7--7--7--7--7--7--7--7--|--------------------------|


G|--------------------------|--------------------------|
D|--------------------------|--------------------------|
A|--7--7--7--7--7--7--7--7--|--------------------------|
E|--------------------------|--5--5--5--5--5--5--5--5--|


G|--------------------------|--------------------------|
D|--------------------------|--------------------------|
A|--------------------------|--------------------------|
E|--5--5--5--5--5--5--5--5--|--2--2--2--2--2--2--2--2--|


G|---------------------------|--------------------------|
D|---------------------------|--------------------------|
A|---------------------------|--5--5--5--5--5--5--5--7--|
E|--2--2--2--2--2--2--2--2/--|--------------------------|


G|--------------------------|--------------------------|
D|--------------------------|--4--4--4--4--4--4--4--4--|
A|--7--7--7--7--7--7--7--7--|--------------------------|
E|--------------------------|--------------------------|


G|---------------------------|--------------------------|
D|--4--4--4--4--4--4--4--4\--|--------------------------|
A|---------------------------|--5--5--5--5--5--5--5--7--|
E|---------------------------|--------------------------|


G|--------------------------|--------------------------|
D|--------------------------|--4--4--4--4--4--4--4--4--|
A|--7--7--7--7--7--7--7--7--|--------------------------|
E|--------------------------|--------------------------|


G|----------------------------|--------------------------|
D|--4--4--4--4--4s--2--2h--4--|--------------------------|
A|----------------------------|--------------------------|
E|----------------------------|--2--2--2--2--2--2--2--2--|


G|--------------------------||
D|--4--4--4--4--4--2--2--2--||
A|--------------------------||
E|--------------------------||



G|-----------------------------------------------------|
D|-----------------------------------------------------|
A|-----------------------------------------------------|
E|--5-----------------------------5--5--5--5--5--5--5--|


G|--------------------------|--------------------------|
D|--------------------------|--------------------------|
A|--------------------------|-----------------------5--|
E|--5--5--5--5--5--5--5--5--|--2--2--2--2--2--2--2-----|


G|--------------------------|--------------------------|
D|--------------------------|--------------------------|
A|--5--5--5--5--5--5--5--5--|--------------------------|
E|--------------------------|--5--5--5--5--5--5--5--5--|


G|--------------------------|----------------------------|
D|--------------------------|----------------------------|
A|--------------------------|----------------------------|
E|--5--5--5--5--5--5--5--5--|--2--2-2-2--2-2-2--2--2--5--|


G|--------------------------||---------------------------|
D|--------------------------||*--------------------------|
A|--5--5--5--5--5--5--5--7--||*--------------------------|
E|--------------------------||---5--5--5--5--5--5--5--5--|


G|--------------------------|--------------------------|
D|--------------------------|--------------------------|
A|--------------------------|--------------------------|
E|--5--5--5--5--5--5--5--5--|--2--2--2--2--2--2--2--5--|


  			     7x
G|---------------------------||
D|--------------------------*||
A|--5--5--5--5--5--5--5--7--*||
E|---------------------------||



Leave your comments about this lesson