The Supremes

You Can't Hurry Love

You Can't Hurry Love by The Supremes Bass Tab and Video Lesson

96 BPM 96 BPM

Level: Intermediate

Genre:Disco

Instrument:4 String Bass

NOTES

Learn how to play You Can't Hurry Love by The Supremes in Bass Guitar.

G|-------------------------------------------------------|
D|-------------------------------------------------------|
A|--1-----------------------------1--1----1-L-1--1-1--1--|
E|-------------------------------------------------------|


G|------------------------------|------------------------------|
D|------------------------------|------------------------------|
A|--1--1--1----1-L-1--1-1---1---|--1--1--1----1-L-1--1-1---1---|
E|------------------------1---1-|------------------------1---1-|


G|-----------------------------|-----------------------------|
D|---------------------------0-|--1--1-----------------------|
A|--1--1--1----1-L-1--1-1--1---|--------1----1-L-1--1-1--1-3-|
E|-----------------------------|-----------------------------|


G|-----------------------------|----------------------------||
D|--0--0---------------------0-|--1--1--1----3-L-3----------||
A|-----------------------------|-------------------------0--||
E|--------3----3-L-3--3-3--3---|-------------------1--3-----||



Verse - Slow

G|-------------------------------------------------------|
D|-------------------------------------------------------|
A|--1-----------------------------1--1----1-L-1--1-1--1--|
E|-------------------------------------------------------|


G|------------------------------|------------------------------|
D|------------------------------|------------------------------|
A|--1--1--1----1-L-1--1-1---1---|--1--1--1----1-L-1--1-1---1---|
E|------------------------1---1-|------------------------1---1-|


G|-----------------------------|-----------------------------|
D|---------------------------0-|--1--1-----------------------|
A|--1--1--1----1-L-1--1-1--1---|--------1----1-L-1--1-1--1-3-|
E|-----------------------------|-----------------------------|


G|-----------------------------|----------------------------||
D|--0--0---------------------0-|--1--1--1----3-L-3----------||
A|-----------------------------|-------------------------0--||
E|--------3----3-L-3--3-3--3---|-------------------1--3-----||



G|---------------------------------|-----------------------------|
D|-------------------------------0-|--1--1-----------------------|
A|--1------1--1----1-L-1--1-1--1---|--------1----1-L-1--1-1--1-3-|
E|---------------------------------|-----------------------------|


G|-----------------------------|----------------------------|
D|--0--0---------------------0-|--1--1--1----3-L-3----------|
A|-----------------------------|-------------------------0--|
E|--------3----3-L-3--3-3--3---|-------------------1--3-----|


G|-----------------------------|-----------------------------|
D|---------------------------0-|--1--1-----------------------|
A|--1--1--1----1-L-1--1-1--1---|--------1----1-L-1--1-1--1-3-|
E|-----------------------------|-----------------------------|


G|-----------------------------|------------------------------||
D|--0--0---------------------0-|--1--1--1----3-L-3-3-3-3--3-1-||
A|-----------------------------|------------------------------||
E|--------3----3-L-3--3-3--3---|------------------------------||



Chorus - Slow

G|---------------------------------|-----------------------------|
D|-------------------------------0-|--1--1-----------------------|
A|--1------1--1----1-L-1--1-1--1---|--------1----1-L-1--1-1--1-3-|
E|---------------------------------|-----------------------------|


G|-----------------------------|----------------------------|
D|--0--0---------------------0-|--1--1--1----3-L-3----------|
A|-----------------------------|-------------------------0--|
E|--------3----3-L-3--3-3--3---|-------------------1--3-----|


G|-----------------------------|-----------------------------|
D|---------------------------0-|--1--1-----------------------|
A|--1--1--1----1-L-1--1-1--1---|--------1----1-L-1--1-1--1-3-|
E|-----------------------------|-----------------------------|


G|-----------------------------|------------------------------||
D|--0--0---------------------0-|--1--1--1----3-L-3-3-3-3--3-1-||
A|-----------------------------|------------------------------||
E|--------3----3-L-3--3-3--3---|------------------------------||



G|----------------------------------|------------------------------|
D|----------------------------------|----------------------------3-|
A|--5------5--5----5-L-5--5-5---5---|--5--5--5----5-L-5--5-5---5---|
E|----------------------------5---5-|------------------------5-----|


G|------------------------------|------------------------------|
D|--5--5--5----5-L-5----5---5---|--5--5--5----5-L-5----5---5-3-|
A|--------------------5---5---5-|--------------------5---5-----|
E|------------------------------|------------------------------|


G|------------------------------|------------------------------|
D|--1--1--1----1-L-1--1-1---1---|--1--1--1----1-L-1--1-1---1-2-|
A|------------------------1---1-|------------------------1-----|
E|------------------------------|------------------------------|


G|------------------------------|-----------------------------||
D|--3--3--3----3-L-3----3---0-3-|-------------3-L-------------||
A|--------------------3---3-----|-----------3-----3--------0--||
E|------------------------------|--1--1--1----------1-1-3-----||



Bridge - Slow

G|----------------------------------|------------------------------|
D|----------------------------------|----------------------------3-|
A|--5------5--5----5-L-5--5-5---5---|--5--5--5----5-L-5--5-5---5---|
E|----------------------------5---5-|------------------------5-----|


G|------------------------------|------------------------------|
D|--5--5--5----5-L-5----5---5---|--5--5--5----5-L-5----5---5-3-|
A|--------------------5---5---5-|--------------------5---5-----|
E|------------------------------|------------------------------|


G|------------------------------|------------------------------|
D|--1--1--1----1-L-1--1-1---1---|--1--1--1----1-L-1--1-1---1-2-|
A|------------------------1---1-|------------------------1-----|
E|------------------------------|------------------------------|


G|------------------------------|-----------------------------||
D|--3--3--3----3-L-3----3---0-3-|-------------3-L-------------||
A|--------------------3---3-----|-----------3-----3--------0--||
E|------------------------------|--1--1--1----------1-1-3-----||



Leave your comments about this lesson