Tower of Power

What Is Hip

What Is Hip by Tower of Power Bass Tab and Video Lesson

Level: Advanced

Genre:R&B

Instrument:4 String Bass

NOTES

How to play What Is Hip by The Tower of Power in Bass Guitar.

G|-----|----------------------------------|--------------------9-------------|
D|-----|----------------------------------|----------------------------------|
A|-----|----7-7-7-7-7-7-7-7-7-7-7-7-7-7-7-|--7-7-7-7-7-7-7-7-7---7-7-7-7---7-|
E|--0--|--L-------------------------------|------------------------------0---|

G|----------------------------------|--------------------9-------------|----|
D|----------------------------------|----------------------------------|----|
A|--L-7-7-7-7-7-7-7-7-7-7-7-7-7-7-7-|--7-7-7-7-7-7-7-7-7---7-7-7-7---7-|--L-|
E|----------------------------------|------------------------------0---|----|



G|------|----------------------------------|--------------------9-------------|
D|------|----------------------------------|----------------------------------|
A|----7-|--L-7-7-7-7-7-7-7-7-7-7-7-7-7-7-7-|--7-7-7-7-7-7-7-7-7---7-7-7-7---7-|
E|--0---|----------------------------------|------------------------------0---|

G|----------7-7-----6-6-----7-7-8-8-|--9-9---------------9--------------|
D|----------------------------------|------7-7-8-8-9-9-----------------*|
A|--L-7-7-7-----7-7-----7-7---------|------------------7---7-7-7-7---7-*|
E|----------------------------------|------------------------------0----|



G|------|----------9--9-9-L--------------|-----------------------------------|
D|------|--------------------------------|-----------------------------------|
A|----7-|--L-7-7-7----------7-7-7-7-x----|----------7-7------------------3-3-|
E|--0---|-----------------------------7--|--8-8-8-8-----10-8---x-0-0---3-----|

G|----------9--9-9---------------|------------------------------------|------|
D|---------------------6------7--|-----------7-7-8-9---7-8-9----------|------|
A|--7-7-7-7----------------------|-----------------------------x-5-6h-|--7-7-|
E|-----------------4-4----5-5----|--6-6h-7-7--------------------------|------|



G|------------|-----------------------------------|
D|------------|-----------------------------------|
A|----x-5h-6h-|--7-7---x-5-5-6-7---5-6-7---7-7-8h-|
E|------------|-----------------------------------|

G|---------------------------------|--------------------------------------|
D|---------------------------------|-----9--10--L-11--12------------------|
A|--9-9---x-7-7-8-9---7-8-9---9----|--10-------------------7-7-7-9-x-10---|
E|---------------------------------|--------------------------------------|

G|--------------------------------------|--------------------------------------|
D|-----9--10--L-11--12------------------|-----9--10--L-11--12------------------|
A|--10-------------------7-7-7-9-x-10---|--10-------------------7-7-7-9-x-10---|
E|--------------------------------------|--------------------------------------|

G|------------------------------------|
D|-----9--10--L-11--12----------------|
A|--10-------------------10--9-L-8--7-|
E|------------------------------------|



G|----------------------------------|------7-8-9-----------------------|
D|----------------------------------|------------7-8-9-----------------|
A|--------2-2-------3h-4-x-4-5h-6-x-|--7-----------------6h-7-7-7------|
E|--5---------3-5-------------------|-----------------------------0----|

G|----------------------------------|------7-8-9-11-12-13-----------------|
D|----------------------------------|-------------------------------------|
A|--------2-2-------3h-4-x-4-5h-6-x-|--7--------------------6h-7-7-7------|
E|--5---------3-5-------------------|--------------------------------0----|

G|----------------------------------|------7-8-9-----------------------|
D|----------------------------------|------------7-8-9-----------------|
A|--------2-2-------3h-4-x-4-5h-6-x-|--7-----------------6h-7-7-7------|
E|--5---------3-5-------------------|-----------------------------0----|

G|----------------------------------|-----------------------------------|
D|----------------------------------|-------------------------------5---|
A|--------2-2-------3h-4-x-4-5h-6-x-|------5-6-7-x----------7-7-7-7-----|
E|--5---------3-5-------------------|--7-----------5-7h-7-7-----------0-|



G|----------------------------------|--------------------------------|
D|----x-x-x-----------x-x-x---------|----x-x-x-----------------------|
A|----------5-5-6-7---------5-5-6-7-|----------5-5-6-7---7--6-L-5--4-|
E|----------------------------------|--------------------------------|

G|----------------------------------|--------------------------------|
D|----------------------------------|--------------------------------|
A|----x-x-x-2-2-3-4---x-x-x-2-2-3-4-|----x-x-x-2-2-3-4---4--5-L-6--7-|
E|----------------------------------|--------------------------------|

G|----------------------------------|----------------------------------|
D|----------------------------------|----------------------------------|
A|----x-x-7---x-x-7---x-x-7---x-x-7-|----x-x-7---x-x-7---x-x-7---x-x-7-|
E|----------------------------------|----------------------------------|

G|-------------------|
D|-------------------|
A|--L----------------|
E|-------------------|



Special Groove

G|-----------7-L--8--9------||-----------------7-L--8--9------|
D|-----------7-L--8--9------||*----------------7-L--8--9------|
A|--------------------------||*--5-5-6---7-7------------------|
E|----------------------7-7-||---------x-----7------------7-7-|

                                  4x 
G|----------------7-L--8--9-------||----------------7-L--8--9----7-|
D|----------------7-L--8--9------*||----------------7-L--8--9------|
A|--5-5-6---7-7------------------*||--5-5-6---7-7--------------5---|
E|--------x-----7------------7-7--||--------x-----7----------------|

G|--L---8---9----7-L--8--9------|----------------7-L--8--9------|
D|---------------7-L--8--9------|----------------7-L--8--9------|
A|----6---7---7-----------------|--5-5-6---7-7--------------7-7-|
E|--------------------------7-7-|--------x-----7----------------|

G|----------------7-L--8--9------|----------------7-L--8--9------|
D|----------------7-L--8--9------|----------------7-L--8--9--6-6-|
A|------5---7-7------------------|--5-5-6---7-7------------------|
E|--7-7---x-----7------------7-7-|--------x-----7----------------|

G|------------------------------|---------------7-L--8--9------|
D|--7-7-8-9---------------------|---------------7-L--8--9------|
A|----------7-7---7-7--5-L-5-7--|--7------7-7------------------|
E|------------------------------|----7--7-----7------------7-7-|

G|----------------7-L--8--9------|----------------7-L--8--9------|
D|----------------7-L--8--9------|----------------7-L--8--9--6-6-|
A|--5-5-6---7-7--------------2-2-|--5-5-6---7-7------------------|
E|--------x-----7----------------|--------x-----7----------------|

G|------------------------------|----------------7-L--8--9------|
D|--7-7-8-9---------------------|----------------7-L--8--9------|
A|----------7-7---7-7--5-L-5-7--|----7-7-7-5-5-7----------------|
E|------------------------------|---------------------------7-7-|

G|----------------7-L--8--9------|----------------7-L--8--9------|
D|----------------7-L--8--9------|----------------7-L--8--9--6-6-|
A|--5-5-6---7-7------------------|--5-5-6---7-7------------------|
E|--------x-----7------------7-7-|--------x-----7----------------|

G|------------------------------|----------------7-L--8--9----11-|
D|--7-7-8-9---------------------|----------------7-L--8--9-------|
A|----------7-7---7-7--5-L-5-7--|----7-7-7-----7------------9----|
E|------------------------------|----------7-7-------------------|

G|---L----12----13----11--L--12--13------|----------------7-L--8--9------|
D|---------------------------------------|----------------7-L--8--9--6-6-|
A|-----10----11----9---------------------|--5-5-6---7-7------------------|
E|-----------------------------------7-7-|--------x-----7----------------|

G|------------------------------|------------------------------|
D|--7-7-8-9---------------------|------------------------------|
A|----------7-7---7-7--5-L-5-7--|----x-7--5--------------------|
E|------------------------------|------------x-4---x-5----x-7--|

G|----------------7-L--8--9------|----------------7-L--8--9------|
D|----------------7-L--8--9------|----------------7-L--8--9--6-6-|
A|--7-7-----7-7------------------|--5-5-6---7-7------------------|
E|------7-7-----7------------7-7-|--------x-----7----------------|

G|------------------------------|-------------------------------|
D|--7-7-8-9---------------------|-------------------------------|
A|----------7-7---7-7--5-L-5-7--|----7-7-7----------------------|
E|------------------------------|----------4--x-4---x-5----x-7--|

G|----------------7-L--8--9------|----------------7-L--8--9------|
D|----------------7-L--8--9------|----------------7-L--8--9--6-6-|
A|--7-7-----7-7------------------|--5-5-6---7-7------------------|
E|------7-7-----7------------7-7-|--------x-----7----------------|

G|------------------------------|--------------------------------|
D|--7-7-8-9---------------------|--------------------------------|
A|----------7-7---7-7--5-L-5-7--|----7-7--7--7-7---x-7-7-5-5-6-7-|
E|------------------------------|--------------------------------|



Special Groove Variation

G|-----------7-L--8--9------||-----------------7-L--8--9------|
D|-----------7-L--8--9------||*----------------7-L--8--9------|
A|--------------------------||*--5-5-6---7-7------------------|
E|----------------------7-7-||---------x-----7------------7-7-|

                                  4x 
G|----------------7-L--8--9-------||----------------7-L--8--9----7-|
D|----------------7-L--8--9------*||----------------7-L--8--9------|
A|--5-5-6---7-7------------------*||--5-5-6---7-7--------------5---|
E|--------x-----7------------7-7--||--------x-----7----------------|

G|--L---8---9----7-L--8--9------|----------------7-L--8--9------|
D|---------------7-L--8--9------|----------------7-L--8--9------|
A|----6---7---7-----------------|--5-5-6---7-7--------------7-7-|
E|--------------------------7-7-|--------x-----7----------------|

G|----------------7-L--8--9------|----------------7-L--8--9------|
D|----------------7-L--8--9------|----------------7-L--8--9--6-6-|
A|------5---7-7------------------|--5-5-6---7-7------------------|
E|--7-7---x-----7------------7-7-|--------x-----7----------------|

G|------------------------------|---------------7-L--8--9------|
D|--7-7-8-9---------------------|---------------7-L--8--9------|
A|----------7-7---7-7--5-L-5-7--|--7------7-7------------------|
E|------------------------------|----7--7-----7------------7-7-|

G|----------------7-L--8--9------|----------------7-L--8--9------|
D|----------------7-L--8--9------|----------------7-L--8--9--6-6-|
A|--5-5-6---7-7--------------2-2-|--5-5-6---7-7------------------|
E|--------x-----7----------------|--------x-----7----------------|

G|------------------------------|----------------7-L--8--9------|
D|--7-7-8-9---------------------|----------------7-L--8--9------|
A|----------7-7---7-7--5-L-5-7--|----7-7-7-5-5-7----------------|
E|------------------------------|---------------------------7-7-|

G|----------------7-L--8--9------|----------------7-L--8--9------|
D|----------------7-L--8--9------|----------------7-L--8--9--6-6-|
A|--5-5-6---7-7------------------|--5-5-6---7-7------------------|
E|--------x-----7------------7-7-|--------x-----7----------------|

G|------------------------------|----------------7-L--8--9----11-|
D|--7-7-8-9---------------------|----------------7-L--8--9-------|
A|----------7-7---7-7--5-L-5-7--|----7-7-7-----7------------9----|
E|------------------------------|----------7-7-------------------|

G|---L----12----13----11--L--12--13------|----------------7-L--8--9------|
D|---------------------------------------|----------------7-L--8--9--6-6-|
A|-----10----11----9---------------------|--5-5-6---7-7------------------|
E|-----------------------------------7-7-|--------x-----7----------------|

G|------------------------------|------------------------------|
D|--7-7-8-9---------------------|------------------------------|
A|----------7-7---7-7--5-L-5-7--|----x-7--5--------------------|
E|------------------------------|------------x-4---x-5----x-7--|

G|----------------7-L--8--9------|----------------7-L--8--9------|
D|----------------7-L--8--9------|----------------7-L--8--9--6-6-|
A|--7-7-----7-7------------------|--5-5-6---7-7------------------|
E|------7-7-----7------------7-7-|--------x-----7----------------|

G|------------------------------|-------------------------------|
D|--7-7-8-9---------------------|-------------------------------|
A|----------7-7---7-7--5-L-5-7--|----7-7-7----------------------|
E|------------------------------|----------4--x-4---x-5----x-7--|

G|----------------7-L--8--9------|----------------7-L--8--9------|
D|----------------7-L--8--9------|----------------7-L--8--9--6-6-|
A|--7-7-----7-7------------------|--5-5-6---7-7------------------|
E|------7-7-----7------------7-7-|--------x-----7----------------|

G|------------------------------|--------------------------------|
D|--7-7-8-9---------------------|--------------------------------|
A|----------7-7---7-7--5-L-5-7--|----7-7--7--7-7---x-7-7-5-5-6-7-|
E|------------------------------|--------------------------------|



Final Bridge

G|----------------------------------|--------------------------------|
D|----x-x-x-----------x-x-x---------|----x-x-x-----------------------|
A|----------5-5-6-7---------5-5-6-7-|----------5-5-6-7---7--6-L-5--4-|
E|----------------------------------|--------------------------------|

G|----------------------------------|--------------------------------|
D|----------------------------------|--------------------------------|
A|----x-x-x-2-2-3-4---x-x-x-2-2-3-4-|----x-x-x-2-2-3-4---4--5-L-6--7-|
E|----------------------------------|--------------------------------|

G|------------------------------------|------------------------------------|
D|------------------------------------|------------------------------------|
A|----x-x-7\---x-x-7---x-x-7\---x-x-7-|----x-x-7\---x-x-7---x-x-7\---x-x---|
E|------------------------------------|----------------------------------7-|

G|-------------------|-------------------|
D|-------------------|-------------------|
A|-------------------|-------------------|
E|--L----------------|--0----------------|



Leave your comments about this lesson