U2

I Still Haven't Found What I'm Looking For

I Still Haven't Found What I'm Looking For by U2 Bass Tab and Video Lesson

100 BPM 100 BPM

Level: Beginner

Genre:Alternative Rock

Instrument:4 String Bass

NOTES

How to play I Still Haven't Found What I'm Looking For by U2 in Bass Guitar.

Intro and Verse

G|--------------------------------------------------------------------------| 
D|--------------------------------------------------------------------------| 
A|--4-----------------------------------------------------4-----4---1-2--4--| 
E|--------------------------------------------------------------------------| 

G|---------------------------||--------------------------| 
D|--------------------------*||--------------------------| 
A|--4-----4-----4---1-2--4--*||--4-----4-----4---1-2--4--| 
E|---------------------------||--------------------------| 

G|--------------------------|--------------------------| 
D|--------------------------|--------------------------| 
A|--4-----4-----4---1-2--4--|--4-----4-----4---1-2--4--| 
E|--------------------------|--------------------------| 

G|--------------------------|--------------------------| 
D|--------------------------|--4-----4-----4-----------| 
A|--4-----4-----4---1-2--4--|------------------1-2--4--| 
E|--------------------------|--------------------------| 

G|--------------------------|--------------------------| 
D|--4-----4-----4-----------|--------------------------| 
A|------------------1-2--4--|--4-----4-----4---1-2--4--| 
E|--------------------------|--------------------------| 

G|--------------------------| 
D|--------------------------| 
A|--4-----4-----4---1-2--4--| 
E|--------------------------| 



G|-----------------------------------------------------------------| 
D|--6--------------------------------------------------L-----------| 
A|--------------------------------------------------------------4--| 
E|--4--------------------------------------------------L--5--7-----| 

G|-------------------|--------------------------|--------------------------| 
D|--4----------------|--------------------------|--------------------------| 
A|-------------------|--4-----4-----4---1-2--4--|--4-----4-----4---1-2--4--| 
E|-------------------|--------------------------|--------------------------| 

G|--------------------------|--------------------------| 
D|--------------------------|--4--4--4--4--4-----------| 
A|-----------------------4--|-----------------1--2--4--| 
E|--4--4--4--4--4--5--7-----|--------------------------| 

G|--------------------------|--------------------------| 
D|--------------------------|--------------------------| 
A|--4-----4-----4---1-2--4--|--4-----4-----4---1-2--4--| 
E|--------------------------|--------------------------| 



Leave your comments about this lesson