U2

New Year's Day

New Year's Day by U2 Bass Tab and Video Lesson

134 BPM 134 BPM

Level: Easy

Genre:Alternative Rock

Instrument:4 String Bass

NOTES

How to play New Year's Day by U2 in Bass Guitar.

Intro

G|--------4-----------------|---------------------------| 
D|--6--6-----6--L--6--L-----|--------1------------------| 
A|--------------------------|--2--2-----2--L--2--L--2/--| 
E|-----------------------4--|---------------------------| 

G|--------------------------|---------------------------| 
D|--------4-----------------|--------4------------------| 
A|--6--6-----6--L--6--L-----|--6--6-----6--L--6--L--6/--| 
E|-----------------------4--|---------------------------| 

G|--------4-----------------|---------------------------| 
D|--6--6-----6--L--6--L-----|--------1------------------| 
A|--------------------------|--2--2-----2--L--2--L--2/--| 
E|-----------------------4--|---------------------------| 

G|--------------------------|--------------------------| 
D|--4--4--4--4--4--4--4--4--|--4--4--4--4--4--4--4--4--| 
A|--------------------------|--------------------------| 
E|--------------------------|--------------------------| 

G|--------------------------|--------------------------| 
D|--2--2--2--2--2--2--2--2--|--2--2--2--2--2--2--2--2--| 
A|--------------------------|--------------------------| 
E|--------------------------|--------------------------| 

G|--------------------------|--------------------------| 
D|--6--6--6--6--6--6--6--6--|--6--6--6--6--6--6--6--6--| 
A|--------------------------|--------------------------| 
E|--------------------------|--------------------------| 

G|--------------------------|--------------------------| 
D|--4--4--4--4--4--4--4--4--|--4--4--4--4--4--4--4--4--| 
A|--------------------------|--------------------------| 
E|--------------------------|--------------------------| 

G|--------------------------|--------------------------| 
D|--2--2--2--2--2--2--2--2--|--2--2--2--2--2--2--2--2--| 
A|--------------------------|--------------------------| 
E|--------------------------|--------------------------| 



Verse

G|--------4------------------|---------------------------| 
D|--6--6-----6--L--6--L--6\--|--------1------------------| 
A|---------------------------|--2--2-----2--L--2--L--2/--| 
E|---------------------------|---------------------------| 

G|--------------------------|---------------------------| 
D|--------4-----------------|--------4------------------| 
A|--6--6-----6--L--6--L-----|--6--6-----6--L--6--L--6/--| 
E|-----------------------4--|---------------------------| 



Chorus

G|--------------------------|--------------------------| 
D|--4--4--4--4--4--4--4--4--|--4--4--4--4--4--4--4--4--| 
A|--------------------------|--------------------------| 
E|--------------------------|--------------------------| 


G|--------------------------|--------------------------| 
D|--6--6--6--6--6--6--6--6--|--6--6--6--6--6--6--6--6--| 
A|--------------------------|--------------------------| 
E|--------------------------|--------------------------| 

G|--------------------------|--------------------------| 
D|--4--4--4--4--4--4--4--4--|--4--4--4--4--4--4--4--4--| 
A|--------------------------|--------------------------| 
E|--------------------------|--------------------------| 

G|--------------------------|--------------------------| 
D|--2--2--2--2--2--2--2--2--|--2--2--2--2--2--2--2--2--| 
A|--------------------------|--------------------------| 
E|--------------------------|--------------------------| 



Solo

G|---------4----------------|-------------------------| 
D|--4h--6-----6--L--6--L----|--------1----------------| 
A|--------------------------|--2--2-----2--L--2--L----| 
E|--------------------------|-------------------------| 

G|--------------------------|--------------------------| 
D|---------4----------------|---------4----------------| 
A|--4h--6-----6--L--6--L----|--4h--6-----6--L--6--L----| 
E|--------------------------|--------------------------| 

G|---------4----------------|-------------------------|--------------------------| 
D|--4h--6-----6--L--6--L----|--------1----------------|---------4----------------| 
A|--------------------------|--2--2-----2--L--2--L----|--4h--6-----6--L--6--L----| 
E|--------------------------|-------------------------|--------------------------| 

G|--------------------------| 
D|---------4----------------| 
A|--4h--6-----6--L--6--L----| 
E|--------------------------| 



Leave your comments about this lesson