U2

Stuck In A Moment You Can't Get Out Of

Stuck In A Moment You Can't Get Out Of by U2 Bass Tab and Video Lesson

79 BPM 79 BPM

Level: Easy

Genre:Alternative Rock

Instrument:4 String Bass

NOTES

Let's play "Stuck In A Moment You Can't Get Out Of" by U2 in Bass Guitar with Video Lessons, Bass Tabs and Guitar Pro Files.

G|-----------------------------|--------------------------|
D|-----------------------------|--------------------------|
A|--7-----7--7-----------------|--------------------------|
E|--------------4--L--4--L--4--|--5--5--5--4--L--4--L--4--|


G|--------------------------|--------------------------||
D|--------------------------|--------------------------||
A|--2--2--2--4--L--4--L--4--|-----------7--L--7--L--7--||
E|--------------------------|--5--5--5-----------------||



G|-----------------------------|-------------------------|
D|-----------------------------|-------------------------|
A|--7-----7--L-----------------|-------------------------|
E|--------------4--L--4--L--4--|--5--5--L--4--L----L--4--|


G|------------------------|-------------------------|--------------------------|
D|------------------------|-------------------------|--------------------------|
A|--2----L--4--L--4--4----|-----------7--L----L--7--|--7--7--L-----------------|
E|------------------------|--5--5--L----------------|-----------4--L--4--L--4--|


G|-------------------------|------------------------|--------------------------||
D|-------------------------|------------------------|--------------------------||
A|-------------------------|--2----L--4--L--4--4----|-----------7--L--7--7--6--||
E|--5--5--L--4--L----L--4--|------------------------|--5--5--L-----------------||



Pre-Chorus

G|---------------------------------|-------------------------|
D|---------------------------------|-------------------------|
A|--4----------4-----4-----4----4--|-------------------------|
E|---------------------------------|--5--5-----5-----5----5--|


G|--------------------------|--------------------------|-------------------------|
D|--------------------------|--------------------------|-------------------------|
A|--------------------------|--------------------------|--4--4-----4-----4----4--|
E|--2--2--L--2--L--2--2--2--|--5--5--L--5--L--5--5--5--|-------------------------|


G|-------------------------|-------------------------|----------------------||
D|-------------------------|-------------------------|----------------------||
A|-------------------------|--4--4-----4-----4----4--|--2----L--2--L--------||
E|--5--5-----5-----5----5--|-------------------------|----------------------||



G|------------------------------|--------------------------|
D|------------------------------|--------------------------|
A|--7------7--7-----------------|--------------------------|
E|---------------4--L--4--L--4--|--5--5--5--4--L--4--L--4--|


G|--------------------------|--------------------------|
D|--------------------------|--------------------------|
A|--2--2--2--4--L--4--L--4--|-----------7--L--7--L--7--|
E|--------------------------|--5--5--5-----------------|


G|--------------------------|--------------------------|------------------------|
D|--------------------------|--------------------------|------------------------|
A|--7--7--7-----------------|--------------------------|--3----L--4--L--4--4----|
E|-----------4--L--4--L--4--|--5--5--5--4--L--4--L--4--|------------------------|


G|-------------------|-------------------|--------------------||
D|-------------------|-------------------|--------------------||
A|-------------------|--7----------------|--L-----------------||
E|--5----------------|-------------------|--------------------||



G|-------------------------------|--------------------------|
D|-------------------------------|--------------------------|
A|-------------------------------|--------------------------|
E|--2-------2--L--2--2--2--2--2--|--5--5--L--5--5--5--5--5--|


G|-------------------------|--------------------------|--------------------------|
D|-------------------------|--------------------------|--------------------------|
A|--7----L--7-----7--7--7--|--7--7--L--7--L--7--7--7--|--------------------------|
E|-------------------------|--------------------------|--2--2--L--2--2--2--2--2--|


G|--------------------------|--------------------------|
D|--------------------------|--------------------------|
A|--------------------------|--5--5--5--5--5--5--5--5--|
E|--5--5--L--5--5--5--5--5--|--------------------------|


G|--------------------------||
D|--------------------------||
A|--------------------------||
E|--7--7--7--7--7--7--7--7--||



G|--------------------------|-------------------------|-------------------|
D|--------------------------|-------------------------|-------------------|
A|--------------------------|-------------------------|--7----------------|
E|--5-----L--5--L--5--L--5--|--5----L--5--L--5--L--5--|-------------------|


G|-------------------||
D|-------------------||
A|--L----------------||
E|-------------------||



Leave your comments about this lesson