U2

Vertigo

Vertigo by U2 Bass Tab and Video Lesson

140 BPM 140 BPM

Level: Intermediate

Genre:Alternative Rock

Instrument:4 String Bass

NOTES

How to play Vertigo by U2 in Bass Guitar.

Intro and Verse

G|--------------------------------------------------------| 
D|--------------------------------------------------------| 
A|--5s------------------------------7--7--5s--7--7--5-----| 
E|-----------------------------------------------------0--| 

G|--------------------------|----------------------------| 
D|--------------------------|----------------------------| 
A|--------------------------|--5s--7--7--5s--7--7--5-----| 
E|--L--5--5--5--5--4--3/----|-------------------------0--| 

G|--------------------------| 
D|-----7--7--7--7--6--5\----| 
A|--------------------------| 
E|--L-----------------------| 



Intro and Verse Slow

G|--------------------------------------------------------| 
D|--------------------------------------------------------| 
A|--5s------------------------------7--7--5s--7--7--5-----| 
E|-----------------------------------------------------0--| 

G|--------------------------|----------------------------| 
D|--------------------------|----------------------------| 
A|--------------------------|--5s--7--7--5s--7--7--5-----| 
E|--L--5--5--5--5--4--3/----|-------------------------0--| 

G|--------------------------| 
D|-----7--7--7--7--6--5\----| 
A|--------------------------| 
E|--L-----------------------| 



G|-----------------------------------------|------------------------| 
D|-----------------------------------------|------------------------| 
A|--5------------------------7--7-------5--|--L--7--7--5--7---------| 
E|-----------------------------------------|------------------------| 

G|------------------------|-------------------------|------------------------| 
D|------------------------|-------------------------|------------------------| 
A|--5-------7--7-------5--|--L--7--7----------------|--5-------7--7-------5--| 
E|------------------------|-----------0--7--5--3----|------------------------| 

G|------------------------|------------------------| 
D|------------------------|------------------------| 
A|--L--7--7--5--7---------|--5-------7--7-------5--| 
E|------------------------|------------------------| 



G|---------------------------------------------|--------------------------| 
D|---------------------------------------------|--------------------------| 
A|--7---------------------7--7--7--7--7--7--7--|--L--5--5--5--5--5--5--2--| 
E|---------------------------------------------|--------------------------| 

G|--------------------------|--------------------------| 
D|--------------------------|--------------------------| 
A|--------------------------|-----------------------5--| 
E|--3--3--3--3--3--3--3--3--|--L--5--5--5--5--5--5-----| 

G|--------------------------|--------------------------| 
D|--------------------------|--------------------------| 
A|--7--7--7--7--7--7--7--7--|--L--5--5--5--5--5--5--2--| 
E|--------------------------|--------------------------| 

G|--------------------------|--------------------------| 
D|--------------------------|--------------------------| 
A|--------------------------|--------------------------| 
E|--3--3--3--3--3--3--3--3--|--L--5--5--5--5--5--5--5--| 

G|----------------------------|--------------------------| 
D|----------------------------|--------------------------| 
A|--5s--7--7--5s--7--7--5-----|--------------------------| 
E|-------------------------0--|--L--5--5--5--5--4--3/----| 

G|----------------------------|--------------------------| 
D|----------------------------|-----7--7--7--7--6--5\----| 
A|--5s--7--7--5s--7--7--5-----|--------------------------| 
E|-------------------------0--|--L-----------------------| 



G|----------------------------------------------|--------------------------| 
D|--7----------------------7--7--7--7--7--7--7--|--7--7--7--7--7--7--7--7--| 
A|----------------------------------------------|--------------------------| 
E|----------------------------------------------|--------------------------| 

G|--------------------------|--------------------------| 
D|--7--7--7--7--7--7--7--7--|--7--7--7--7--7--7--7--7--| 
A|--------------------------|--------------------------| 
E|--------------------------|--------------------------| 

G|--------------------------|--------------------------| 
D|--7--7--7--7--7--7--7--7--|--7--7--7--7--7--7--7--7--| 
A|--------------------------|--------------------------| 
E|--------------------------|--------------------------| 



Leave your comments about this lesson