Van Halen

Can't Stop Loving You

Can't Stop Loving You by Van Halen Bass Tab and Video Lesson

116 BPM 116 BPM

Level: Easy

Genre:Hard Rock

Instrument:5 String Bass

NOTES

How to play Can't Stop Loving You by Van Halen in Bass Guitar.

G|------------------------------------------------------||
D|-----------------------------------------------------*||
A|--0-----------------------------0--0--0--0--0--0--0---||
E|-----------------------------------------------------*||
B|------------------------------------------------------||


G|----------------------------||--------------------------|
D|*--------------------------*||--0--0--0--0--0--0--0--2--|
A|----------------------------||--------------------------|
E|*--2--2--2--2--2--2--2--2--*||--------------------------|
B|----------------------------||--------------------------|


G|--------------------------||----------------------------||
D|--2--2--2--2--2--2--2--2--||*--------------------------*||
A|--------------------------||---0--0--0--0--0--0--0--0---||
E|--------------------------||*--------------------------*||
B|--------------------------||----------------------------||



G|----------------------------------------------------------||
D|---------------------------------------------------------*||
A|--0---------------------------------0--0--0--0--0--0--0---||
E|---------------------------------------------------------*||
B|----------------------------------------------------------||


G|----------------------------||--------------------------|
D|*--------------------------*||--------------------------|
A|----------------------------||--------------------------|
E|*--2--2--2--2--2--2--2--2--*||-----------------------0--|
B|----------------------------||--3--3--3--3--3--3--3-----|


G|--------------------------||----------------------------||
D|--------------------------||*--------------------------*||
A|--------------------------||---0--0--0--0--0--0--0--0---||
E|--0--0--0--0--0--0--0--0--||*--------------------------*||
B|--------------------------||----------------------------||


G|--------------------------|--------------------------|
D|--------------------------|--------------------------|
A|--------------------------|--------------------2--4--|
E|--2--2--2--2--2--2--2--2--|--2--2--2--2--2--2--------|
B|--------------------------|--------------------------|


G|--------------------------|--------------------------|
D|--0--0--0--0--0--0--0--2--|--2--2--2--2--2--2--2--2--|
A|--------------------------|--------------------------|
E|--------------------------|--------------------------|
B|--------------------------|--------------------------|


G||----------------------------||
D||*--------------------------*||
A||----------------------------||
E||*--2--2--2--2--2--2--2--2--*||
B||----------------------------||



Pre-Chorus 1

G|--------------------------------------------------------------|
D|--------------------------------------------------------------|
A|--------------------------------------------------------------|
E|--------------------------------------------------------------|
B|--3--------------------------------------3--3--3--3--3--3--3--|


G|--------------------------||----------------------------||
D|--------------------------||*--------------------------*||
A|--------------------------||---2--2--2--2--2--2--2--2---||
E|--------------------------||*--------------------------*||
B|--3--3--3--3--2--2--2--2--||----------------------------||


G|--------------------------|--------------------------|
D|--------------------------|--------------------------|
A|--------------------------|--------------------------|
E|--3--3--3--3--3--3--3--3--|--0--0--0--0--------------|
B|--------------------------|--------------3--3--3--3--|


G||----------------------------||
D||*--------------------------*||
A||----------------------------||
E||*--0--0--0--0--0--0--0--0--*||
B||----------------------------||



G|-------------------------------------------------------||
D|------------------------------------------------------*||
A|--0------------------------------0--0--0--0--0--0--0---||
E|------------------------------------------------------*||
B|-------------------------------------------------------||


G|--------------------------|--------------------------|
D|--------------------------|--------------------------|
A|--------------------------|--------------------2--4--|
E|--2--2--2--2--2--2--2--2--|--2--2--2--2--2--2--------|
B|--------------------------|--------------------------|


G|--------------------------|--------------------------|-------------------------|
D|--------------------------|--------------------------|-------------------------|
A|--5--5--5--5--5--5--9--7--|--------------------------|--0--0--0--0--0--0--0----|
E|--------------------------|--0--0--0--0--0--0--0--0--|-------------------------|
B|--------------------------|--------------------------|-------------------------|


G|------------------------||
D|------------------------||
A|------------------------||
E|--12\-------------0/----||
B|------------------------||



G|----------------------------------------------------------||
D|---------------------------------------------------------*||
A|--0---------------------------------0--0--0--0--0--0--0---||
E|---------------------------------------------------------*||
B|----------------------------------------------------------||


G|----------------------------||--------------------------|
D|*--------------------------*||--------------------------|
A|----------------------------||--------------------------|
E|*--2--2--2--2--2--2--2--2--*||-----------------------0--|
B|----------------------------||--3--3--3--3--3--3--3-----|


G|--------------------------||----------------------------||
D|--------------------------||*--------------------------*||
A|--------------------------||---0--0--0--0--0--0--0--0---||
E|--0--0--0--0--0--0--0--0--||*--------------------------*||
B|--------------------------||----------------------------||


G|--------------------------|--------------------------|
D|--------------------------|--------------------------|
A|--------------------------|--------------------2--4--|
E|--2--2--2--2--2--2--2--2--|--2--2--2--2--2--2--------|
B|--------------------------|--------------------------|


G|--------------------------|--------------------------|
D|--------------------------|--------------------------|
A|--------------------------|--------------------------|
E|-----------------------0--|--0--0--0--0--0--0--0--0--|
B|--3--3--3--3--3--3--3-----|--------------------------|


G||----------------------------||
D||*--------------------------*||
A||---2--2--2--2--2--2--2--2---||
E||*--------------------------*||
B||----------------------------||



Pre-Chorus 2

G|-----------------------------------------------------------------||
D|*---------------------------------------------------------------*||
A|---3---------------------------------------3--3--3--3--3--3--3---||
E|*---------------------------------------------------------------*||
B|-----------------------------------------------------------------||


G|----------------------------||--------------------------|
D|*--------------------------*||--------------2--2--2--2--|
A|---0--0--0--0--0--0--0--0---||--------------------------|
E|*--------------------------*||--1--1--1--1--------------|
B|----------------------------||--------------------------|


G|--------------------------|--------------------------|
D|--0--0--0--0--------------|--------------------------|
A|--------------3--3--3-----|--------------------------|
E|-----------------------0--|--0--0--0--0--0--0--0--0--|
B|--------------------------|--------------------------|


G|---------------------------||
D|---------------------------||
A|---------------------------||
E|--0--0--0--0--0----/12\----||
B|---------------------------||



G|------------------------------------------------------|
D|------------------------------------------------------|
A|--2------------------------------2--2--2--2--2--2--2--|
E|------------------------------------------------------|
B|------------------------------------------------------|


G|--------------------------|--------------------------|
D|--------------------------|--2--2--2--2--2--2--2--2--|
A|--2--2--2--2--2--2--2--2--|--------------------------|
E|--------------------------|--------------------------|
B|--------------------------|--------------------------|


G|---------------------------||--------------------------|
D|--------------------------*||--------------------------|
A|--4--4--4--4--0--0--0--0---||--------------------------|
E|--------------------------*||--0--0--0--0--0--0--0--0--|
B|---------------------------||--------------------------|


G|--------------------------||
D|--------------------------||
A|--------------------------||
E|--0--0--0--0--0--0--0--0--||
B|--------------------------||



Guitar Solo

G|-----------------------------------------------------------|
D|-----------------------------------------------------------|
A|--3-----------------------------------3--3--3--3--3--3--3--|
E|-----------------------------------------------------------|
B|-----------------------------------------------------------|


G|--------------------------|----------------------|-------------------|
D|--------------------------|----------------------|-------------------|
A|--5--5--5--5--5--5--5--5--|----------------------|-------------------|
E|--------------------------|----------------------|-------------------|
B|--------------------------|--3------3--L----1----|--L----------------|


G|----------------------|-------------------|--------------------|
D|----------------------|-------------------|--------------------|
A|----------------------|-------------------|--------------------|
E|----------------------|-------------------|--------------------|
B|--3------3--L----1----|--L----------------|--3------------1----|


G|-------------------|----------------------|-------------------|
D|-------------------|----------------------|-------------------|
A|-------------------|-----------------0----|--L----------------|
E|-------------------|----------------------|-------------------|
B|--L----------------|--3------3--L---------|-------------------|


G|-----/9--7p--6---------------||
D|----------------7------------||
A|-------------------7--5p--4--||
E|-----------------------------||
B|-----------------------------||



G|----------------------------------|-------------------|-------------------|
D|--7-------------------------------|--L----------------|--4----------------|
A|----------------------------------|-------------------|-------------------|
E|----------------------------------|-------------------|-------------------|
B|----------------------------------|-------------------|-------------------|


G|-------------------|--7------7--L--------|--9--------------------|
D|--L----------------|---------------------|-----------------------|
A|-------------------|---------------------|---------7--7\---------|
E|-------------------|---------------------|-----------------------|
B|-------------------|---------------------|-----------------------|


G|----------------------|--------------------||
D|----------------------|--------------------||
A|--0------------L--7s--|--12----------------||
E|----------------------|--------------------||
B|----------------------|--------------------||



G|-----------------------------------------------------|
D|-----------------------------------------------------|
A|--0-----------------------------0--0--0--0--0--0--0--|
E|-----------------------------------------------------|
B|-----------------------------------------------------|


G|--------------------------|--------------------------|
D|--------------------------|--------------------------|
A|--0--0--0--0--0--0--0--0--|--------------------------|
E|--------------------------|--2--2--2--2--2--2--2--2--|
B|--------------------------|--------------------------|


G|--------------------------|--------------------------|
D|--------------------------|--------------------------|
A|--------------------------|--------------------------|
E|--2--2--2--2--2--2--2--2--|--------------------------|
B|--------------------------|--3--3--3--3--3--3--3--3--|


G|--------------------------|-------------------------|-------------------||
D|--------------------------|---------------2s--9--7--|--L----------------||
A|--------------------------|--0------0--L------------|-------------------||
E|--0--0--0--0--0--0--2--4--|-------------------------|-------------------||
B|--------------------------|-------------------------|-------------------||



Leave your comments about this lesson