Whitesnake

Love Ain't No Stranger

Love Ain't No Stranger by Whitesnake Bass Tab and Video Lesson

126 BPM 126 BPM

Level: Beginner

Genre:Hard Rock

Instrument:4 String Bass

NOTES

Play with Bass Tabs and Videos Love Ain't No Stranger by Whitesnake in Bass Guitar.

Bridge 1 and 2

G|-----------------------------------|-----------------------|
D|-----------------------------------|-----------------------|
A|-----------------------------------|-----------------------|
E|-----------------7--5--7--L--------|-----7--5--7--L--------|


G|------------------------|----------------------|----------------------||
D|------------------------|----------------------|----------------------||
A|------------------------|----------------------|----------------------||
E|-----7--5--7--L------5--|--L-------0--------L--|--L------------10\----||



G|--------------------------|-----------------------|--------------------|
D|--------------------------|-----------------------|--------------------|
A|--------------------------|-----------------------|--7--------5--------|
E|--------7--5--7--L--------|-----7--5--7--L--------|--------------------|


G|------------------------||
D|-----------------------*||
A|-----------------------*||
E|-----7--5--7--L---------||



G|-----------------------------|-------------------|-------------------------|
D|-----------------------------|-------------------|-------------------------|
A|---------------------5-------|-------------------|-----------------5----5--|
E|---------3--3--3--3-------5--|--L----------------|-----3--3--3--3----------|


G|----------------------||
D|---------------------*||
A|--L------------------*||
E|-----5------------L---||



G|---------------------|---------------------|----------------------|
D|---------------------|---------------------|----------------------|
A|---------------------|---------------------|----------------------|
E|--2------3-----------|--5------7-----------|-----2----3-----------|


G|----------------------||---------------------|----------------------|
D|---------------------*||---------------------|----------------------|
A|---------------------*||---------------------|----------------------|
E|--5------7------------||--2------3-----------|--5------7------7--5--|


G|----------------------|---------------------|---------------------|
D|----------------------|---------------------|---------------------|
A|----------------------|---------------------|---------------------|
E|-----2----3-----------|--5------7-----------|--2------3-----------|


G|---------------------|----------------------|-------------------||
D|---------------------|----------------------|-------------------||
A|---------------------|----------------------|-------------------||
E|--5------7-----------|-----2----3--------5--|--5----------------||



G|---------------------------------|---------------------------|
D|-------------------------7s-9\---|-------------------7s-9\---|
A|---------------------------------|---------------------------|
E|-----------7--5--7--L------------|-----7--5--7--L------------|


G|------------------------|----------------------|---------------------------|
D|------------------------|----------------------|-------------------7s-9\---|
A|------------------------|----------------------|---------------------------|
E|-----7--5--7--L------5--|--L-------0--------L--|-----7--5--7--L------------|


G|---------------------------|------------------------|-----------------------||
D|-------------------7s-9\---|------------------------|-----------------------||
A|---------------------------|------------------------|--------------7--5--7--||
E|-----7--5--7--L------------|-----7--5--7--L------5--|--L--------------------||



G|---------------------|---------------------|----------------------|
D|---------------------|---------------------|----------------------|
A|---------------------|---------------------|----------------------|
E|--2------3-----------|--5------7-----------|-----2----3-----------|


G|---------------------|---------------------|---------------------|
D|---------------------|---------------------|---------------------|
A|---------------------|---------------------|---------------------|
E|--5------7-----------|--2------3-----------|--5------7-----------|


G|----------------------|----------------------|-------------------|
D|----------------------|----------------------|-------------------|
A|----------------------|----------------------|-------------------|
E|-----2----3--------5--|--L--5----7--7--------|--L----------------|


G|-------------------||
D|-------------------||
A|-------------------||
E|--L----------------||



Leave your comments about this lesson