Yes

Owner of a Lonely Heart

Owner of a Lonely Heart by Yes Bass Tab and Video Lesson

Level: Intermediate

Genre:Rock

Instrument:4 String Bass

NOTES

How to play Owner of a Lonely Heart by Yes in Bass Guitar.

Intro

G|----------------|---------------|----------------|----------------| 
D|----------------|---------------|----------------|----------------| 
A|-------------12-|-0---2--3--5-5-|----------------|-0---2--3--5-5--| 
E|----------------|---------------|------3--3------|----------------| 

G|----------------|---------------|----------------| 
D|----------------|---------------|----------------| 
A|--0h2h3h5-3h2---|-0---2--3--5-5-|----------------| 
E|--------------3-|---------------|------3--3------| 



Intro Detail Slow

G|----------------| 
D|----------------| 
A|--0h2h3h5-3h2---| 
E|--------------3-| 



Intro Right Hand

G|----------------| 
D|----------------| 
A|--0h2h3h5-3h2---| 
E|--------------3-| 



Verse and Chorus

G|----------------|----------------|----------------|----------------| 
D|----------------|----------------|----------------|----------------| 
A|-0---2--3--5-5--|----------------|-0---2--3--5-5--|----------------| 
E|----------------|------3--3------|----------------|------3--3------| 



Verse and Chorus Right Hand

G|----------------|----------------|----------------|----------------| 
D|----------------|----------------|----------------|----------------| 
A|-0---2--3--5-5--|----------------|-0---2--3--5-5--|----------------| 
E|----------------|------3--3------|----------------|------3--3------| 



Chorus 2nd Part

G|----------------| 
D|---------5---7--| 
A|-0--2-3---------| 
E|----------------| 

G|:------9--------|----------------|------9--------|----------------:| 
D|:-9h11---11-9--7|-5---5h7-5---5-7|-9h11---11-9--7|-5---5h7-5---5-7:| 
A|:---------------|---7-------7----|---------------|---7-------7----:| 
E|:---------------|----------------|---------------|----------------:| 



Chorus 2nd Part Right Hand

G|----------------| 
D|---------5---7--| 
A|-0--2-3---------| 
E|----------------| 

G|:------9--------|----------------|------9--------|----------------:| 
D|:-9h11---11-9--7|-5---5h7-5---5-7|-9h11---11-9--7|-5---5h7-5---5-7:| 
A|:---------------|---7-------7----|---------------|---7-------7----:| 
E|:---------------|----------------|---------------|----------------:| 



Solo

G|----------------|----------------|----------------|----------------| 
D|----------------|----------------|----------------|----------------| 
A|-0---2--3--5-5--|----------------|-0---2--3--5-5--|----------------| 
E|----------------|------3--3------|----------------|------3--3------| 

G|----------------|---------------|----------------|----------------| 
D|----------------|---------------|----------------|----------5-4-5-| 
A|-0---2--3--5-5--|---------------|-0---2--3--5-5--|----------------| 
E|----------------|---------------|----------------|----------------| 

G|----------------|----------------|----------------|----------------| 
D|----------------|----------------|----------------|----------------| 
A|-0---2--3--5-5--|----------------|-0---2--3--5-5--|----------------| 
E|----------------|------3--3------|----------------|------3--3------| 



Solo Right Hand

G|----------------|----------------|----------------|----------------| 
D|----------------|----------------|----------------|----------------| 
A|-0---2--3--5-5--|----------------|-0---2--3--5-5--|----------------| 
E|----------------|------3--3------|----------------|------3--3------| 

G|----------------|---------------|----------------|----------------| 
D|----------------|---------------|----------------|----------5-4-5-| 
A|-0---2--3--5-5--|---------------|-0---2--3--5-5--|----------------| 
E|----------------|---------------|----------------|----------------| 

G|----------------|----------------|----------------|----------------| 
D|----------------|----------------|----------------|----------------| 
A|-0---2--3--5-5--|----------------|-0---2--3--5-5--|----------------| 
E|----------------|------3--3------|----------------|------3--3------| 



Solo Final Part

G|----------12--19|----17----14---|---------14-----|---12---9-------| 
D|----------------|---------------|----------------|----------------| 
A|----------------|---------------|----------------|----------------| 
E|----------------|---------------|----------------|----------------| 

G|-------------7--|------5---------| 
D|----------------|----------------| 
A|----------------|----------------| 
E|----------------|----------------| 



Solo Final Part Right Hand

G|----------12--19|----17----14---|---------14-----|---12---9-------| 
D|----------------|---------------|----------------|----------------| 
A|----------------|---------------|----------------|----------------| 
E|----------------|---------------|----------------|----------------| 

G|-------------7--|------5---------| 
D|----------------|----------------| 
A|----------------|----------------| 
E|----------------|----------------| 



Final Part

G|----------------|-------------8h10|-8----8h10-8-------:| 
D|----------------|------10---------|---10--------10----:| 
A|-------10--9---8|10h12---12-10----|---------------10-8:| 
E|----------------|-----------------|-------------------:| 



Final Part Right Hand

G|----------------|-------------8h10|-8----8h10-8-------:| 
D|----------------|------10---------|---10--------10----:| 
A|-------10--9---8|10h12---12-10----|---------------10-8:| 
E|----------------|-----------------|-------------------:| 



Leave your comments about this lesson