This is a free video lesson

Cake

Short Skirt, Long Jacket

Cake Bass Tab and Video Lesson

other Cake bass tabs

Level: Intermediate

Style:Alternative Rock

Type of instrument:4 String Bass

NOTES

How to play Short Skirt, Long Jacket by Cake in Bass Guitar.

F|-----------------------------------------------------|
C|--------------------------------------0-2-0-2--------|
G|-----------------------------------------------------|
D|--0--------------------------------------------------|


F|----------------------------|--------------------------|
C|------0-2-0-----------------|-----------0-2-0-2--------|
G|------------2------------2--|--------------------------|
D|--------------3-L--5--L-----|--0-----------------------|


F|----------------------------|--------------------------|
C|------0-2-0-----------------|-----------0-2-0-2--------|
G|------------2------------2--|--------------------------|
D|--------------3-L--5--L-----|--0-----------------------|


F|----------------------------|--------------------------|
C|------0-2-0-----------------|-----------0-2-0-2--------|
G|------------2------------2--|--------------------------|
D|--------------3-L--5--L-----|--0-----------------------|


F|----------------------------|--------------------------|
C|------0-2-0-----------------|-----------0-2-0-2--------|
G|------------2------------2--|--------------------------|
D|--------------3-L--5--L-----|--0-----------------------|


F|----------------------------|-----------------------|-----------------------||
C|------0-2-0-----------------|--2-------0--L---------|--2--------------------||
G|------------2------------2--|-----------------------|----------0----1----2--||
D|--------------3-L--5--L-----|-----------------------|-----4-----------------||



F|----------------------------------------------------|
C|--2-------------------------------------------------|
G|-------------------------------------------2-----0--|
D|----------------------------------------------------|


F|------------------------|------------------------|------------------------|
C|---------------------2--|--2---------------------|---------------------2--|
G|--0------------2--------|---------------2-----0--|--0------------2--------|
D|------------------------|------------------------|------------------------|


F|------------------------|------------------------|------------------------|
C|--2---------------------|---------------------2--|--2---------------------|
G|---------------2-----0--|--0------------2--------|---------------2-----0--|
D|------------------------|------------------------|------------------------|


F|--------------------------|--------------------------|
C|--------------------------|--------------------------|
G|--0-----0-----0-----0--1--|--2----2---0-2-0----0--1--|
D|-----4-----4-----4--------|-----------------2--------|


F|--------------------------|--------------------------|---------------------||
C|--------------------------|--------------------------|---------------------||
G|--2----2---0-2-0----0--1--|--2----2---0-2-0----0--1--|--2------------------||
D|-----------------2--------|-----------------2--------|---------------------||



F|------------------------------------------------------|
C|--2--------------------------------2---0-2-0----------|
G|---------------------------------------------2--1--0--|
D|------------------------------------------------------|


F|--------------------------|--------------------------|
C|-----------------------2--|--2----2---0-2-0----------|
G|--0----0-----0------------|-----------------2--1--0--|
D|-----------0---0-3--2-----|--------------------------|


F|--------------------------|--------------------------|
C|-----------------------2--|--2----2---0-2-0----------|
G|--0----0-----0------------|-----------------2--1--0--|
D|-----------0---0-3--2-----|--------------------------|


F|--------------------------|--------------------------|
C|-----------------------2--|--2----2---0-2-0----------|
G|--0----0-----0------------|-----------------2--1--0--|
D|-----------0---0-3--2-----|--------------------------|


F|--------------------------|--------------------------|
C|-----------------------2--|--2----2---0-2-0----------|
G|--0----0-----0------------|-----------------2--1--0--|
D|-----------0---0-3--2-----|--------------------------|


F|---------------------------|-------------------|-------------------||
C|---------------------------|-------------------|-------------------||
G|--0----0-----0-2----0-2----|-------------------|-------------------||
D|-----------0-----3------3--|--0----------------|--L----------------||



Marion Baudin from Vannes, France

It's amazing, it's just watch the videos and play. It's simple and efficient.

Join Now!