This is a free video lesson

Foo Fighters

Walk

Foo Fighters Bass Tab and Video Lesson

other Foo Fighters bass tabs

Level: Easy

Style:Rock

Type of instrument:4 String Bass

NOTES

How to play Walk by Foo Fighters in Bass Guitar.

G|--2---------------------------2----2----2----|--2----2----2----2-----|
D|---------------------------------------------|--------------------4--|
A|---------------------------------------------|-----------------------|
E|---------------------------------------------|-----------------------|

G|----------------------|-----------------------|--4----4----4----4----|
D|--2----2----2----2----|--2----2----2----2-----|----------------------|
A|----------------------|--------------------0--|----------------------|
E|----------------------|-----------------------|----------------------|

G|--4----4----4----4--6--|--7----7----7----7----|--7----7----7----7----|
D|-----------------------|----------------------|----------------------|
A|-----------------------|----------------------|----------------------|
E|-----------------------|----------------------|----------------------|

G|----------------------|----------------------|----------------------|
D|----------------------|----------------------|----------------------|
A|--0----0----0----0----|--0----0----0----0----|----------------------|
E|----------------------|----------------------|--0----0----0----0----|

G|----------------------|----------------------|----------------------|
D|----------------------|----------------------|----------------------|
A|----------------------|--2----2----2----2----|--2----2----2----2----|
E|--0----0----0----0----|----------------------|----------------------|

G|----------------------|------------------------|--------------------------|
D|----------------------|------------------------|--------------------------|
A|--5----5----7----7----|--8----8----10----10----|--0--0--0--0--0--0--0--0--|
E|----------------------|------------------------|--------------------------|

G|---------------------------|----------------------------------|
D|---------------------------|----------------------------------|
A|--0--0--0--0--0--0--0--5/--|--12--12--12--12--12--12--12--12--|
E|---------------------------|----------------------------------|

G|----------------------------------|
D|----------------------------------|
A|--12--12--12--12--12--12--12--12--|
E|----------------------------------|



G|---------------------------------------------------|
D|---------------------------------------------------|
A|--0---------------------------0-----0--0--0-----0--|
E|---------------------------------------------------|

G|--------------------------|--------------------------|
D|--------------------------|--------------------------|
A|--0--0-----0--0--0-----0--|--------------------------|
E|--------------------------|--0--0-----0--0--0-----0--|

G|--------------------------|--------------------------|
D|--------------------------|--------------------------|
A|-----------------------0--|--2--2-----2--2--2-----2--|
E|--0--0-----0--0--0--------|--------------------------|

G|--------------------------|--------------------------|
D|--------------------------|--------------------------|
A|--2--2-----2--2--2-----0--|--5--5--5--5--5--5--5--5--|
E|--------------------------|--------------------------|

G|--------------------------|--------------------------|
D|--------------------------|--------------------------|
A|--5--5--5--5--5--0--2--4--|--0--0--0--0--0--0--0--0--|
E|--------------------------|--------------------------|

G|--------------------------|--------------------------|
D|--------------------------|--------------------------|
A|--0--0--0--0--0--0--0--0--|--------------------------|
E|--------------------------|--0--0--0--0--0--0--0--0--|

G|--------------------------|--------------------------|
D|--------------------------|--------------------------|
A|--------------------------|--2--2--2--2--2--2--2--2--|
E|--0--0--0--0--0--0--0--0--|--------------------------|

G|--------------------------|--------------------------|
D|--------------------------|--------------------------|
A|--2--2--2--2--2--2--2--2--|--5--5--5--5--7--7--7--7--|
E|--------------------------|--------------------------|

G|------------------------------|
D|------------------------------|
A|--8--8--8--8--10--10--10--10--|
E|------------------------------|



G|------------------------------------------------------|
D|------------------------------------------------------|
A|--0------------------------------0--0--0--0--0--0--0--|
E|------------------------------------------------------|

G|--------------------------|--------------------------|
D|--------------------------|--------------------------|
A|--0--0--0--0--0--0--0--0--|--------------------------|
E|--------------------------|--0--0--0--0--0--0--0--0--|

G|--------------------------|--------------------------|
D|--------------------------|--------------------------|
A|--------------------------|--2--2--2--2--2--2--2--2--|
E|--0--0--0--0--0--0--0--0--|--------------------------|

G|--------------------------|--------------------------|
D|--------------------------|--------------------------|
A|--2--2--2--2--2--2--2--2--|--5--5--5--5--7--7--7--7--|
E|--------------------------|--------------------------|

G|--------------------------|--------------------------|
D|--------------------------|--------------------------|
A|--8--8--8--8--5--5--5--5--|--0--0--0--0--0--0--0--0--|
E|--------------------------|--------------------------|

G|--------------------------|--------------------------|
D|--------------------------|--------------------------|
A|--0--0--0--0--0--0--0--0--|--------------------------|
E|--------------------------|--0--0--0--0--0--0--0--0--|

G|--------------------------|--------------------------|
D|--------------------------|--------------------------|
A|--------------------------|--2--2--2--2--2--2--2--2--|
E|--0--0--0--0--0--0--0--0--|--------------------------|

G|--------------------------|--------------------------|
D|--------------------------|--------------------------|
A|--2--2--2--2--2--2--2--2--|--5--5--5--5--7--7--7--7--|
E|--------------------------|--------------------------|

G|--------------------------|
D|--------------------------|
A|--------------------------|
E|--1--1--1--1--3--3--3--3--|



G|----------------------------------------------------|
D|----------------------------------------------------|
A|--0----------------------------0--0--0--0--0--0--0--|
E|----------------------------------------------------|

G|--------------------------|--------------------------|
D|--------------------------|--------------------------|
A|--0--0--0--0--0--0--0--0--|--0--0--0--0--0--0--0--0--|
E|--------------------------|--------------------------|

G|----------------------------------|--------------------------|
D|----------------------------------|--------------------------|
A|--12--12--12--12--12--11--12--12--|--------------------------|
E|----------------------------------|--0--0--0--0--0--0--0--0--|

G|--------------------------|--------------------------|
D|--------------------------|--------------------------|
A|--------------------------|--------------------------|
E|--0--0--0--0--0--0--0--0--|--0--0--0--0--0--0--0--0--|

G|--------------------------|--------------------------|
D|--------------------------|--------------------------|
A|--------------------------|--------------------------|
E|--0--0--0--2--L--4--L--5--|--2--2--2--2--2--2--2--2--|

G|--------------------------|--------------------------|
D|--------------------------|--------------------------|
A|-----------------------4--|--5--5--5--5--5--5--5--5--|
E|--2--2--2--2--2--2--2-----|--------------------------|

G|---------------------------||---------------------------------||
D|--------------------------*||--------------------------------*||
A|--3--3--3--3--3--3--3--3--*||--2s-3-3-3-2--3--2s-3-3-3-2--3--*||
E|---------------------------||---------------------------------||

G|--------------------------|-------------------|
D|--------------------------|-------------------|
A|--3--3--3--3--3--3--3--3--|--0----------------|
E|--------------------------|-------------------|



G|---------------------------------------------------|
D|---------------------------------------------------|
A|------------------------------------0-----0-----0--|
E|---------------------------------------------------|

G|--------------------------|--------------------------|
D|--------------------------|--------------------------|
A|--------------------------|-----------------------0--|
E|--0--0--0--0--0--0--0--0--|--0--0--0--0--0--0--0-----|

G|--------------------------|--------------------------|
D|--------------------------|--------------------------|
A|--2--2--2--2--2--2--2--2--|--2--2--2--2--2--2--0--2--|
E|--------------------------|--------------------------|

G|--------------------------|--------------------------|
D|--------------------------|--------------------------|
A|--5--5--5--5--7--7--7--7--|--------------------------|
E|--------------------------|--1--1--1--1--3--3--3--3--|

G|--------------------------|--------------------------|
D|--------------------------|--------------------------|
A|--0--0--0--0--0--0--0--0--|--0--0--0--0--0--0--0--0--|
E|--------------------------|--------------------------|

G|--------------------------|--------------------------|
D|--------------------------|--------------------------|
A|--------------------------|-----------------------0--|
E|--0--0--0--0--0--0--0--0--|--0--0--0--0--0--0--0-----|

G|--------------------------|--------------------------|
D|--------------------------|--------------------------|
A|--2--2--2--2--2--2--2--2--|--2--2--2--2--2--2--0--2--|
E|--------------------------|--------------------------|

G|--------------------------|--------------------------|
D|--------------------------|--------------------------|
A|--5--5--5--5--7--7--7--7--|--------------------------|
E|--------------------------|--1--1--1--1--3--3--3--3--|

G|---------------------------|--------------------------|
D|*--------------------------|--------------------------|
A|*--0--0--0--0--0--0--0--0--|--0--0--0--0--0--2--0-----|
E|---------------------------|-----------------------2--|

G|--------------------------|--------------------------|
D|--------------------------|--------------------------|
A|--------------------------|-----------------------0--|
E|--0--0--0--0--0--0--0--0--|--0--0--0--0--0--0--2-----|

G|--------------------------|--------------------------|
D|--------------------------|--------------------------|
A|--2--2--2--2--2--2--2--2--|--2--2--2--2--2--2--0--2--|
E|--------------------------|--------------------------|

G|--------------------------|---------------------------||
D|--------------------------|--------------------------*||
A|--5--5--5--5--7--7--7--7--|--------------------------*||
E|--------------------------|--1--1--1--1--3--3--3--3---||

G|--------------------------|--------------------------|
D|--------------------------|--------------------------|
A|--5--5--5--5--3--3--3--3--|--------------------------|
E|--------------------------|--1--1--1--1--3--3--3--3--|



G|--------------------------|--------------------------|
D|--------------------------|--3--3--3--3--5--5--5--5--|
A|--5--5--5--5--3--3--3--3--|--------------------------|
E|--------------------------|--------------------------|

G|--------------------------|---------------------------|
D|--------------------------|---------------------------|
A|--0--0--0--0--0--0--0--0--|--0--0--0--0--0--0--0--5/--|
E|--------------------------|---------------------------|

G|----------------------------------|----------------------------------|
D|----------------------------------|----------------------------------|
A|--12--12--12--12--12--12--12--12--|--12--12--12--12--12--12--12--12--|
E|----------------------------------|----------------------------------|

G|-----------------------|
D|-----------------------|
A|--12\------------------|
E|-----------------------|



Rob James from Cincinnati, USA

Bass Camera it's a great site for beginners like me. I'm improve my skills step by step, everyday. Thank you guys!

Join Now!