This is a free video lesson

James Brown

I Feel Good

James Brown Bass Tab and Video Lesson

other James Brown bass tabs

Level: Easy

Style:R&B

Type of instrument:4 String Bass

NOTES

How to play I Feel Good by James Brown in Bass Guitar.

G|----------------------7--5--7--5--7--5--|--7--------7-----5--------|
D|----------------------------------------|-----------------------7--|
A|--5-------------------------------------|--------5-----------------|
E|----------------------------------------|--------------------------|

G|-------7--5--7--5--7--5--|--7--------7-----5--------|-------------------------|
D|-------------------------|-----------------------7--|-------5--3--5--3--5--3--|
A|--5----------------------|--------5-----------------|-------------------------|
E|-------------------------|--------------------------|--3----------------------|

G|--------------------------|-------7--5--7--5--7--5--|--7--------7-----5--------|
D|--5--------5-----3--------|-------------------------|-----------------------0--|
A|-----------------------3--|--5----------------------|--------5-----------------|
E|--------3-----------------|-------------------------|--------------------------|

G|------------------------|------------------------|-----------------------5--|
D|-------7-----7----------|-------5-----5----------|-----------4-----7--------|
A|------------------------|------------------------|-----5--------------------|
E|------------------------|------------------------|--------------------------|

G|-----9---------------|
D|---------------------|
A|---------------------|
E|---------------------|



G|--------------------------------------------|--------------------------|
D|--5--------------------5--3--3--2--2--0--0--|--5--5--3--3--2--2--------|
A|--------------------------------------------|--------------------3--4--|
E|--------------------------------------------|--------------------------|

G|--------------------------|--------------------------|
D|--------------------------|--------------------------|
A|--5--5--3--3--2--2--0--0--|--5--5--3--3--2--2--0--0--|
E|--------------------------|--------------------------|

G|--------------------------|--------------------------|---------------------|
D|--5--5--3--3--2--2--0--0--|--5--5--3--3--2--2--5--6--|--7------------------|
A|--------------------------|--------------------------|---------------------|
E|--------------------------|--------------------------|---------------------|



G|---------------------------------------|------------------------|
D|----------------------7-----7----------|-------5-----5----------|
A|---------------------------------------|------------------------|
E|---------------------------------------|------------------------|

G|-----------------------5--|-----9-----7-----5--------|-----------------------|
D|-----------4-----7--------|-----------------------7--|-----5-----3-----------|
A|-----5--------------------|--------------------------|-----------------------|
E|--------------------------|--------------------------|-----------------------|

G|-------------------|-------------------|
D|-------------------|-------------------|
A|-------------------|--5----------------|
E|-------------------|-------------------|



Ryan Johnson from

Buy this now. You won't regret it. I made the purchase and I have amazing results already.

Join Now!