Alice Cooper

School's Out

School's Out by Alice Cooper Bass Tab and Video Lesson

Level: Advanced

Genre:Hard Rock

Instrument:4 String Bass

NOTES

Learn how to play School's Out by Alice Cooper in Bass Guitar.

G|-------------------------------------|--------------------|
D|-------------------------------------|--------------------|
A|-------------------------------------|--------------------|
E|--0----------------------------------|--L-----------------|


                                             |--3--|  |--3--|  |--3--|  |--3--|   
G|-------------------|--------------------|--------------------------------------|
D|-------------------|--------------------|--------------------------------------|
A|-------------------|--------------------|--7--7--7--7--7--7--7--7--7--7--7--7--|
E|--0----------------|--L-----------------|--------------------------------------|


    |--3--|  |--3--|  |--3--|  |--3--|     |--3--|  |--3--|  |--3--|  |--3--|   
G|--------------------------------------|--------------------------------------|
D|--------------------------------------|--------------------------------------|
A|--7--7--7--7--7--7--7--7--7--7--7--7--|--7--7--7--7--7--7--7--7--7--7--7--7--|
E|--------------------------------------|--------------------------------------|


    |--3--|  |--3--|  |--3--|  |--3--|                              
G|--------------------------------------|--------------------------|
D|--------------------------------------|--------------------------|
A|--7--7--7--7--7--7--7--7--7--7--7--7--|--7-----5--7-----------5--|
E|--------------------------------------|-----7-----------7--7-----|


G|-------------------------||
D|-------------------------||
A|--7-----5--7-------------||
E|-----7-----------7\------||



G|----------------------------------------------------------|
D|----------------------------------------------------------|
A|----------------------------------------5--7-----------5--|
E|--0----------------------------------7-----------7--7-----|


                            4x 
G|--------------------------||--------------------------|
D|-------------------------*||--10----10----10----10----|
A|--7-----5--7-------------*||--------------------------|
E|-----7-----------7\-------||--------------------------|


G|----------------------------|--------------------------|
D|--10----10----10------------|--------------------------|
A|----------------------------|--------------------------|
E|--------------------10--11--|---L----11----11----11----|


G|--------------------------||
D|--------------------------||
A|--------------------------||
E|--11----11----11----11----|| 



G|----------------------------------------------------------------|
D|----------------------------------------------------------------|
A|--10------------------------------------10----10----10--10--10--|
E|----------------------------------------------------------------|


           |---3---|         |---3---|            |---3---|         |---3---|   
G|--------------------------------------|--------------------------------------|
D|--------------------------------------|--------------------------------------|
A|--10----10--10--10--10----10--10--10--|--10----10--10--10--10----10--10--10--|
E|--------------------------------------|--------------------------------------|


           |---3---|         |---3---|            |---3---|         |---3---|   
G|--------------------------------------|--------------------------------------|
D|--------------------------------------|--------------------------------------|
A|--10----10--10--10--10----10--10--10--|--10----10--10--10--10----10--10--10--|
E|--------------------------------------|--------------------------------------|


             |---3---|         |---3---|            |---3---|         |---3---|   
G|---------------------------------------|--------------------------------------|
D|*--------------------------------------|--------------------------------------|
A|*--10----10--10--10--10----10--10--10--|--10----10--10--10--10----10--10--10--|
E|---------------------------------------|--------------------------------------|


           |---3---|         |---3---|                           
G|---------------------------------------||---------------------|
D|--------------------------------------*||-------/7------------|
A|--10----10--10--10--10----10--10--10--*||---------------------|
E|---------------------------------------||---------------------|


G|-----------------------|-------------------|-------------------||
D|--L----/7--------7\----|--3----------------|--L----------------||
A|-----------------------|-------------------|-------------------||
E|-----------------------|-------------------|-------------------||



G|--------------------------------------------12------12--|
D|--10------------------------------------10--------------|
A|--------------------------------------------------------|
E|--------------------------------------------------------|


G|----------------12----12--12--|--------------12------12--|
D|--10----10--10----------------|--10------10--------------|
A|------------------------------|--------------------------|
E|------------------------------|--------------------------|


G|----------------12----12--12--|--14----14--14----------------|
D|--10----10--10----------------|----------------12----12--12--|
A|------------------------------|------------------------------|
E|------------------------------|------------------------------|


G|--14------14----------------|--14------14----------------|
D|--------------12----12--12--|--------------12----12--12--|
A|----------------------------|----------------------------|
E|----------------------------|----------------------------|


                  |---3---|   |---3---|    
G|--14----------------------------------||
D|----------12--12--12--12--12--12--12--||
A|--------------------------------------||
E|--------------------------------------||



Guitar Solo

                                                              |--3--|   
G|----------------------------------------------7--9-----9--7--------|
D|-------------------------------------------9-----------------9--7--|
A|--7----------------------------------------------------------------|
E|-------------------------------------------------------------------|


                      |--3--| 4x
G|--------7--9-----9--7---------||
D|-----9-----------------9--7--*||
A|--7--------------------------*||
E|------------------------------||



                                              |---3---|         |---3---|   
G|----------------------------------------------------------------------|
D|----------------------------------------------------------------------|
A|--10------------------------------------10--10--10--10----10--10--10--|
E|----------------------------------------------------------------------|


           |---3---|         |---3---|            |---3---|         |---3---|   
G|--------------------------------------|--------------------------------------|
D|--------------------------------------|--------------------------------------|
A|--10----10--10--10--10----10--10--10--|--10----10--10--10--10----10--10--10--|
E|--------------------------------------|--------------------------------------|


           |---3---|         |---3---|            |---3---|         |---3---|   
G|--------------------------------------|--------------------------------------|
D|--------------------------------------|--------------------------------------|
A|--10----10--10--10--10----10--10--10--|--10----10--10--10--10----10--10--10--|
E|--------------------------------------|--------------------------------------|


           |---3---|         |---3---|            |---3---|         |---3---|   
G|--------------------------------------|--------------------------------------|
D|--------------------------------------|--------------------------------------|
A|--10----10--10--10--10----10--10--10--|--10----10--10--10--10----10--10--10--|
E|--------------------------------------|--------------------------------------|


           |---3---|         |---3---|                                            
G|--------------------------------------|--------------------|-------------------|
D|--------------------------------------|--------------------|-------------------|
A|--10----10--10--10--10----10--10--10--|--10----------------|--8----------------|
E|--------------------------------------|--------------------|-------------------|


G|-------------------|-------------------||
D|-------------------|-------------------||
A|--3----------------|--L----------------||
E|-------------------|-------------------||



G|--------------------------------------------12------12--|
D|--10------------------------------------10--------------|
A|--------------------------------------------------------|
E|--------------------------------------------------------|


G|--------------12------12--|----------------12------12--|
D|--10------10--------------|--10----10--10--------------|
A|--------------------------|----------------------------|
E|--------------------------|----------------------------|


G|----------------12------12--|--14------14--------------|
D|--10----10--10--------------|--------------12------12--|
A|----------------------------|--------------------------|
E|----------------------------|--------------------------|


G|--14------14--------------|--14------14--------------|
D|--------------12------12--|--------------12------12--|
A|--------------------------|--------------------------|
E|--------------------------|--------------------------|


G|--14------14--------------|------------------------|------------------------|
D|--------------------------|-------------5----5-----|-------------5----5-----|
A|-------------------12\----|--3----3--3-------------|--3----3--3-------------|
E|--------------------------|---------------------3--|---------------------3--|


    |-3|                                                                     
G|---------------------------|----------------------|-----------------------|
D|----------------5----5-----|-------------5--------|------------7----7-----|
A|--3--3----3--3-------------|--3----3--3-----------|--5------5-------------|
E|------------------------3--|----------------------|--------------------5--|


G|-----------------------|-------------------5--|
D|------------7----7-----|------------7---------|
A|--5------5-------------|--5------5------------|
E|--------------------5--|----------------------|


    |--3--|  |--3--|  |--3--|  |--3--|    
G|--7--7--7--7--7--7--------------------||
D|--------------------------------------||
A|--------------------5--5--5--5--8--9--||
E|--------------------------------------||



Leave your comments about this lesson