Audioslave

I'm The Highway

I'm The Highway by Audioslave Bass Tab and Video Lesson

88 BPM 88 BPM

Level: Easy

Genre:Alternative Rock

Instrument:4 String Bass

NOTES

Let's play "I'm The Highway" by Audioslave in Bass Guitar with Video Lessons, Bass Tabs and Guitar Pro Files.

G|--------------------------|-------------------------|
D|--------------------------|-------------------------|
A|--------------------------|----------------------7--|
E|--5-----L---5-5--5--L--3--|--5----L---5-5--5--L-----|


G|-------------------------|-------------------------||--------------------------|
D|-------------------------|-------------------------||*-------------------------|
A|-------------------------|-------------------------||*-------------------------|
E|--5----L---5-5--5--L--3--|--5----L---5-5--5--L--3--||---1----L---1-1--1--L--3--|


G|-------------------------|-------------------------|--------------------------||
D|-------------------------|-------------------------|-------------------------*||
A|--3----L---3-3--3--L--3--|-------------------------|-------------------------*||
E|-------------------------|--3----L---3-3--3--L--0--|--5----L---5-5--5--L--3---||


G|-------------------------||--------------------------|-------------------------|
D|-------------------------||*-------------------------|-------------------------|
A|-------------------2--3--||*-------------------------|--3----------------------|
E|--5----L---5-5--5--------||---1----L---1-1--1--L--3--|-------5---5-5--5--L--5--|


G|-------------------------|--------------------------||
D|-------------------------|-------------------------*||
A|-------------------------|--3----------------------*||
E|--3----L---3-3--3--L--5--|-------5---5-5--5--L--5---||



G|---------------------------|-------------------------|
D|---------------------------|-------------------------|
A|--3------L---3-3--3--L--3--|-------------------------|
E|---------------------------|--3----L---3-3--3--L--3--|


G|-------------------------|-------------------------||-------------------------|
D|-------------------------|------------------------*||-------------------------|
A|--5----5---5-5--5--L--5--|-------------------2----*||--7----------------------|
E|-------------------------|--5----L---5-5--5--------||--0----L---0-0--0--L--0--|


G|---------------------|-------------------------|-------------------------|
D|---------------------|-------------------------|-------------------------|
A|--7------------L\----|-------------------------|----------------------7--|
E|---------------------|--5----L---5-5--5--L--3--|--5----L---5-5--5--L-----|


G|-------------------------|-------------------------||
D|-------------------------|-------------------------||
A|-------------------------|-------------------------||
E|--5----L---5-5--5--L--3--|--5----L---5-5--5--L--3--||



Guitar Solo

G|-----------------------------------|--------------------------|
D|-----------------------------------|--------------------------|
A|-----------------------------------|--3--3--3--3--3--3--3--5--|
E|--1-----------1--1--1--1--1--1--3--|--------------------------|


G|--------------------------|---------------------------||
D|--------------------------|--------------------------*||
A|--------------------------|--------------------2--3--*||
E|--3--3--3--3--3--3--3--0--|--5--7--5--0--0--0---------||


G|--------------------------|--------------------------|
D|--------------7--7--7--5--|--------------------------|
A|--------------------------|--------------------------|
E|--5--5--5--5--------------|--1--1--1--1--1--1--1--3--|


G|--------------------------|--------------------------|
D|--------------------------|--------------------------|
A|--3--3--3--3--3--3--3--3--|--------------------------|
E|--------------------------|--3--3--3--3--3--3--3--3--|


G|--------------------------|--------------------------|
D|--------------------------|--------------------------|
A|--------------------2--3--|--------------------------|
E|--5--5--5--5--5--5--------|--1--1--1--1--1--1--1--1--|


G|--------------------------|--------------------------|
D|--------------------------|--------------------------|
A|--3--3--3--3--3--3--3--3--|--------------------------|
E|--------------------------|--3--3--3--3--3--3--3--3--|


G|--------------------------||
D|--------------------------||
A|--------------------------||
E|--5--5--5--5--5--5--5--5--||



G|--------------------------|-------------------------|---------------------|
D|--------------------------|-------------------------|---------------------|
A|--------------------------|----------------------7--|---------------------|
E|--5-----L---5-5--5--L--3--|--5----L---5-5--5--L-----|--5------------L--3--|


G|--------------------|-------------------------|---------------------|
D|--------------------|-------------------------|---------------------|
A|--------------------|-------------------------|------------------7--|
E|--5--------5--------|--5----L---5-5--5--L--3--|--5------------L-----|


G|---------------------|---------------------|-------------------|
D|---------------------|---------------------|-------------------|
A|---------------------|---------------------|--0----------------|
E|--5--------5------3--|--5--------5------3--|-------------------|


G|-------------------||
D|-------------------||
A|--L----------------||
E|-------------------||



Leave your comments about this lesson