Barry White

You're the First, the Last, My Everything

You're the First, the Last, My Everything by Barry White Bass Tab and Video Lesson

Level: Easy

Genre:R&B

Instrument:4 String Bass

NOTES

How to play You're the First, the Last, My Everything by Barry White in Bass Guitar.

G|---------------------------------------------------------------12-13-14----|
D|*--------------------------------------------------------------------------|
A|*--------------------------------------------------------3-----------------|
E|---1-----------------------------------------------1-----------------------|

G|------------------------|-----------------12-13-14----|------------------------|
D|------------------------|-----------------------------|------------------------|
A|----------3--------3----|-----------3-----------------|----------3--------3----|
E|-------1-----1--1-------|--1--1-----------------------|-------1-----1--1-------|

                                                         6x
G|-----------------12-13-14----|-------------------------||
D|-----------------------------|------------------------*||
A|-----------3-----------------|----------3--------3----*||
E|--1--1-----------------------|-------1-----1--1--------||



Verse Part 1

G|-----------------------------------------------------------------12-13-14----
D|-----------------------------------------------------------------------------
A|-----------------------------------------------------------3-----------------
E|--1--------------------------------------------------1-----------------------

G|------------------------|-------------------------|-----------------------|
D|------------------------|-------------------------|-----------------------|
A|----------3--------3----|-----------3----------3--|--3----3----3----3--3--|
E|-------1-----1--1-------|--1--1-------------------|-----------------------|

G|-----------------------|-----------------------|--5--5--3--3--2--2--0-----|
D|-----------------------|-----------------------|--------------------------|
A|--3----3----3----3--3--|--3----3----3----3--3--|-----------------------3--|
E|-----------------------|-----------------------|--------------------------|

G|-------------------------|------------------------|-------------------------|
D|--3--3----------------3--|-----3------------------|-------------------------|
A|--------5----3--5--------|--------5----3----3--0--|--5--5--3----0--3-----5--|
E|-------------------------|------------------------|-------------------------|

G|------------------------|-------------------------|-------------------------|
D|------------------------|--3--3----------------3--|-----3-------------3--5--|
A|-----5--3----5----3--5--|--------5----3--5--------|--------5----3--5--------|
E|------------------------|-------------------------|-------------------------|

G|--3--3----------------3--|-----3-------3--2--------|-------------------------|
D|--------5----3--5--------|--------5-------------3--|--5--5--3-------3--------|
A|-------------------------|-------------------------|-------------5--------3--|
E|-------------------------|-------------------------|-------------------------|

G|-------------5--5--5--3--|--2--2-------------------|------------------------|
D|-------------------------|--------2----------------|--------7---------7-----|
A|-----3-------------------|-------------0--3-----5--|-----5-------5-------5--|
E|--------3----------------|-------------------------|------------------------|

G|-------------------------|------------------------|--3--3-------3-----------|
D|--5--5--3-------3-----5--|-----5--3---------3--5--|--------3-------3--------|
A|-------------5-----------|-------------5----------|----------------------3--|
E|-------------------------|------------------------|-------------------------|

G|--------------------|
D|--------------------|
A|--3-----------------|
E|--------------------|



Verse Part 2

G|-------------------------------------------------------------------------|
D|--3--------------------------------------------------3----------------3--|
A|--------------------------------------------------------5----3--5--------|
E|-------------------------------------------------------------------------|

G|-----------------------|-------------------------|------------------------|
D|-----3-----------------|-------------------------|------------------------|
A|--------5----3----0----|--5--5--3----0--3-----5--|-----5--3----5----3--5--|
E|-----------------------|-------------------------|------------------------|

G|-------------------------|-------------------------|--3--3----------------3--|
D|--3--3----------------3--|-----3-------------3--5--|--------5----3--5--------|
A|--------5----3--5--------|--------5----3--5--------|-------------------------|
E|-------------------------|-------------------------|-------------------------|

G|-----3------------------|--3--3----------------3--|--3--3------------------|
D|--------5----3----3--5--|--------5----3--5--------|--------3---------1--2--|
A|------------------------|-------------------------|-------------4----------|
E|------------------------|-------------------------|------------------------|

G|-------------------------|------------------------|-------------------------|
D|--3--3-------------------|------------------3--4--|--5--5-------------------|
A|--------3----0--3-----5--|--L--5--3----5----------|--------5-------1-----3--|
E|-------------------------|------------------------|-------------3-----------|

G|------------------------|-----------5--------5----|-----5--------5-------5--|
D|------------------------|--3--3--------3--3-------|--3-----3--3-------3-----|
A|--3--3-----3--3----3----|-------------------------|-------------------------|
E|------------------------|-------------------------|-------------------------|

G|-----------5--------5----|--5-----5-----5-----5-----|
D|--3--3--------3--3-------|--------------------------|
A|-------------------------|-----3-----3-----3-----3--|
E|-------------------------|--------------------------|



Instrumental

G|-------------------------------------------------------------------------|
D|--3--------------------------------------------------3----------------3--|
A|--------------------------------------------------------5----3--5--------|
E|-------------------------------------------------------------------------|

G|------------------------|-------------------------|------------------------|
D|--L--3------------------|--3--3----------------3--|--L--3------------------|
A|--------5----3----3--5--|--------5----3--5--------|--------5----3----3--5--|
E|------------------------|-------------------------|------------------------|

G|-------------------------|-------------------------|--3--3----------------3--|
D|--3--3----------------3--|-----3-------------3--5--|--------5----3--5--------|
A|--------5----3--5--------|--------5----3--5--------|-------------------------|
E|-------------------------|-------------------------|-------------------------|

G|--L--3------------------|--3--3----------------3--|--L--3------------------|
D|--------5----3----3--5--|--------5----3--5--------|--------3---------1--2--|
A|------------------------|-------------------------|-------------4----------|
E|------------------------|-------------------------|------------------------|

G|-------------------------|------------------------|-------------------------|
D|--3--3-------------------|------------------3--4--|--5--5-------------------|
A|--------3----0--3-----5--|--L--5--3----5----------|--------5-------1-----2--|
E|-------------------------|------------------------|-------------3-----------|

G|------------------------|
D|------------------------|
A|--3--3-------3----3--5--|
E|--------3---------------|



Leave your comments about this lesson