Black Eyed Peas

Where Is The Love

Where Is The Love by Black Eyed Peas Bass Tab and Video Lesson

Level: Easy

Genre:Rap

Instrument:4 String Bass

NOTES

How to play Where Is The Love by Black Eyed Peas in Bass Guitar.

Intro, Verse and Chorus

G|--------------------2-----|-------------------------|
D|*----------------------3--|--2----------------2--3--|
A|*----------------3--------|----------------3--------|
E|---1----------------------|-------------------------|

G|------------------------|--------------------------|
D|------------------2--3--|-------------------------*|
A|--5---------------------|--1----------1-----1-----*|
E|------------------------|--------------------------|



G|---------------------|---------------------|-------------------|
D|---------------------|---------------5-----|-------------------|
A|---------------0--1--|--3---------------3--|--5----------------|
E|--1------------------|---------------------|-------------------|

G|-----------------------|-------------------|
D|-----------------------|-------------------|
A|--1--------1--1--1--1--|-------------------|
E|-----------------------|-------------------|



Final Original

G|-----------------------|----------------------|----------------------|
D|-----------------------|----------------------|----------------------|
A|-----------1-----1-----|----------------------|--3-------------------|
E|-----------------------|--1-------------------|----------------------|

G|----------------------|----------------------|----------------------|
D|----------------------|----------------------|----------------------|
A|--5-------------------|----------------------|----------------------|
E|----------------------|--6-------------------|--1-------------------|

G|----------------------|----------------------|----------------------|
D|--2-------------------|----------------------|----------------------|
A|----------------------|--5-------------------|--1-------------------|
E|----------------------|----------------------|----------------------|

G|---------------------|---------------------|-------------------|
D|---------------------|---------------5-----|-------------------|
A|---------------0--1--|--3---------------3--|--5----------------|
E|--1------------------|---------------------|-------------------|

G|-----------------------|---------------------|---------------------|
D|-----------------------|---------------------|---------------5-----|
A|--1--------1--1--1--1--|---------------0--1--|--3---------------3--|
E|-----------------------|--1------------------|---------------------|

G|-------------------|-----------------------|-------------------|
D|-------------------|-----------------------|-------------------|
A|--5----------------|--1--------1--1--1--1--|-------------------|
E|-------------------|-----------------------|-------------------|

G|-------------------|-------------------|-------------------|-------------------|
D|-------------------|-------------------|-------------------|-------------------|
A|-------------------|-------------------|-------------------|-------------------|
E|-------------------|-------------------|-------------------|-------------------|

G|-------------------|-------------------|
D|-------------------|-------------------|
A|-------------------|-------------------|
E|-------------------|-------------------|



Final Alternative

G|-----------2--------------|-----------3--2-----------|
D|--------3-----5--3--2--3--|-----2--5--------5--3--2--|
A|-----3--------------------|--3-----------------------|
E|--1-----------------------|--------------------------|

G|--------------------------|--------------------------|
D|--------7--5--------------|-----------7--5-----------|
A|--5--8--------8--7--5--7--|-----5--8--------8--7--8--|
E|--------------------------|--6-----------------------|



Leave your comments about this lesson