Black Sabbath

Iron Man

Iron Man by Black Sabbath Bass Tab and Video Lesson

Level: Advanced

Genre:Rock

Instrument:4 String Bass

NOTES

How to play Iron Man by Black Sabbath in Bass Guitar.

G|----------------------|---------------------|
D|---------------5-4----|---------------------|
A|-------------------5--|--2------------------|
E|----------------------|---------------------|



G|-----------------------|----------------------------|-----------------------|
D|---------------2--2----|--5-4-5-4-5-4-------2--2----|---------------2--2----|
A|--2----5----5----------|--------------5--5----------|--2----5----5----------|
E|-----------------------|----------------------------|-----------------------|

G|----------------------------|
D|--5-4-5-4-5-4-------2--2----|
A|--------------5--5----------|
E|----------------------------|



G|--------------------------|-----------------------------|
D|--------------------------|--------------7-6-7-6-7-5----|
A|-----------5--L-----------|------------7-------------7--|
E|--7--7--L--------7--L--6--|--5--5--5--------------------|



G|-------4--9--L-7-----------|-----------------------------|
D|------------------9-7-9-7--|-----------------4-5-4-------|
A|--7------------------------|--5----5----4h-5-------7-5---|
E|---------------------------|---------------------------5-|

G|------------------------------|------------------------------|
D|-----------------------7-8-9--|-----------------------7-8-9--|
A|-------------7--7-8-9---------|-------------7--7-8-9---------|
E|--7--7--7-10------------------|--7--7--7-10------------------|

G|-------4--9--L---------------|-----------------------------|
D|---------------12-9-7-5-7-5--|-----------------4-5-4-------|
A|--7--------------------------|--5----5----4h-5-------7-5---|
E|-----------------------------|---------------------------5-|

G|------------------------------|------------------------------|
D|-----------------------7-8-9--|-----------------------7-8-9--|
A|-------------7--7-8-9---------|-------------7--7-8-9---------|
E|--7--7--7-10------------------|--7--7--7-10------------------|



G|-------4--9--L-7------------|-----------------------------|
D|------------------5-7-5-7-5-|-----------------4-5-4-------|
A|--7-------------------------|--5----5----4h-5-------7-5---|
E|----------------------------|---------------------------5-|

G|------------------------------|------------------------------|
D|-----------------------7-8-9--|-----------------------7-8-9--|
A|-------------7--7-8-9---------|-------------7--7-8-9---------|
E|--7--7--7-10------------------|--7--7--7-10------------------|

G|-----------9--L-7-------7-9--|-----------------------------|
D|-------9-9--------9-7-9------|-----------------4-5-4-------|
A|--7--------------------------|--5----5----4h-5-------7-5---|
E|-----------------------------|---------------------------5-|

G|------------------------------|------------------------------|
D|-----------------------7-8-9--|-----------------------7-8-9--|
A|-------------7--7-8-9---------|-------------7--7-8-9---------|
E|--7--7--7-10------------------|--7--7--7-10------------------|



G|--------------------------|---------------------------|
D|--11--9-------------------|---------------------------|
A|-----------11----10----9--|--L--7---------------------|
E|--------------------------|----------9--7h--9--7h--9--|

G|--------------------------|---------------------------|
D|--11--9-------------------|---------------------------|
A|-----------11----10----9--|--L--7---------------------|
E|--------------------------|----------9--7h--9--7h--9--|



Guitar Solo 1

G|--------------------------|--------------------------|
D|--------------------------|--------------------------|
A|--------------------------|--------------------------|
E|--9--9--9--9--9--9--7--8--|--9--9--9--9--9--9--7--8--|

G|-----------------------------|---------------------------------|
D|----------------------9------|--11--11--11--11--11--11--9--10--|
A|------------------11-----11--|---------------------------------|
E|--9--9--9--9--12-------------|---------------------------------|

G|------11--9-------------------|-------------------------|
D|--11---------11--9------------|-------------------------|
A|--------------------11--9--7--|--9--7-----------7--L----|
E|------------------------------|--------9--7--9----------|

G|--------------------------|---------------------------|
D|--------------------------|------------------------9--|
A|--------------------------|-----7--L-----7--9--11-----|
E|--9--9--9--9--9--9--7--8--|--9--------9---------------|

G|---------------------------------|-------------------------------|
D|--11--11--11--11--11--11--9--10--|--11--9--10--11--9--10--11--9--|
A|---------------------------------|-------------------------------|
E|---------------------------------|-------------------------------|

G|---------------------------|--------------------------|
D|---------------------------|--------------------------|
A|--11--9--7--9--7-----------|--------------------------|
E|------------------9--7--8--|--9--9--9--9--9--9--7--8--|

G|--------------------------|--------------------------|
D|--------------------------|--------------------------|
A|--------------------------|--------------------------|
E|--9--9--9--9--9--9--9--9--|--9--9--9--9--9--9--9--9--|

G|----------------------------------|----------------------------------|
D|--11--11--11--11--11--11--11--11--|--11--11--11--11--11--11--11--11--|
A|----------------------------------|----------------------------------|
E|----------------------------------|----------------------------------|

G|--6--4-----------------|---------------------------|
D|----------6----5----4--|--L--2---------------------|
A|-----------------------|----------4--2h--4--2h--4--|
E|-----------------------|---------------------------|



Guitar Solo 1 Slow

G|--------------------------|--------------------------|
D|--------------------------|--------------------------|
A|--------------------------|--------------------------|
E|--9--9--9--9--9--9--7--8--|--9--9--9--9--9--9--7--8--|

G|-----------------------------|---------------------------------|
D|----------------------9------|--11--11--11--11--11--11--9--10--|
A|------------------11-----11--|---------------------------------|
E|--9--9--9--9--12-------------|---------------------------------|

G|------11--9-------------------|-------------------------|
D|--11---------11--9------------|-------------------------|
A|--------------------11--9--7--|--9--7-----------7--L----|
E|------------------------------|--------9--7--9----------|

G|--------------------------|---------------------------|
D|--------------------------|------------------------9--|
A|--------------------------|-----7--L-----7--9--11-----|
E|--9--9--9--9--9--9--7--8--|--9--------9---------------|

G|---------------------------------|-------------------------------|
D|--11--11--11--11--11--11--9--10--|--11--9--10--11--9--10--11--9--|
A|---------------------------------|-------------------------------|
E|---------------------------------|-------------------------------|

G|---------------------------|--------------------------|
D|---------------------------|--------------------------|
A|--11--9--7--9--7-----------|--------------------------|
E|------------------9--7--8--|--9--9--9--9--9--9--7--8--|

G|--------------------------|--------------------------|
D|--------------------------|--------------------------|
A|--------------------------|--------------------------|
E|--9--9--9--9--9--9--9--9--|--9--9--9--9--9--9--9--9--|

G|----------------------------------|----------------------------------|
D|--11--11--11--11--11--11--11--11--|--11--11--11--11--11--11--11--11--|
A|----------------------------------|----------------------------------|
E|----------------------------------|----------------------------------|

G|--6--4-----------------|---------------------------|
D|----------6----5----4--|--L--2---------------------|
A|-----------------------|----------4--2h--4--2h--4--|
E|-----------------------|---------------------------|



Guitar Solo 2

                                     13x
G|------------------------------------||---------------------------------|
D|*----------------------------------*||*--------------------------------|
A|*--7-7-7-7-7-7-7-7-7-7-7-7-7-7-7-7-*||*--7--5--7-7-7-7-7-7-7-7-7-7-7-7-|
E|------------------------------------||---------------------------------|

G|--------------------------------|--------------------------------|
D|--------------------------------|--------------------------------|
A|--5--4--5-5-5-5-5-5-5-5-5-5-5-5-|--4--3--4-4-4-4-4-4-4-4-4-4-4-4-|
E|--------------------------------|--------------------------------|

                                   6x 
G|---------------------------------||--------------------------------|
D|--------------------------------*||--------------------------------|
A|--3--2--3-3-3-3-3-3-3-3-3-3-3-3-*||--7--5--7-7-7-7-7-7-7-7-7-7-7-7-|
E|---------------------------------||--------------------------------|

G|--------------------------------|--------------------------------|
D|--------------------------------|--------------------------------|
A|--5--4--5-5-5-5-5-5-5-5-5-5-5-5-|--4--3--4-4-4-4-4-4-4-4-4-4-4-4-|
E|--------------------------------|--------------------------------|


    |----3----|    |----3----|                                      
G|--------------------------------|--------------------------------|
D|--------------------------------|--------------------------------|
A|--3----2-------------------2----|--7--5--7-7-7-7-7-7-7-7-7-7-7-7-|
E|------------3----2----3---------|--------------------------------|

G|--------------------------------|--------------------------------|
D|--------------------------------|--------------------------------|
A|--5--4--5-5-5-5-5-5-5-5-5-5-5-5-|--4--3--4-4-4-4-4-4-4-4-4-4-4-4-|
E|--------------------------------|--------------------------------|

    |----3----|    |----3----|                              
G|--------------------------------|-----------------------|
D|--------------------------------|--------7--------------|
A|--3----2-------------------2----|--7--5-----------------|
E|------------3----2----3---------|-----------------------|



Guitar Solo 2 Slow

                                     13x
G|------------------------------------||---------------------------------|
D|*----------------------------------*||*--------------------------------|
A|*--7-7-7-7-7-7-7-7-7-7-7-7-7-7-7-7-*||*--7--5--7-7-7-7-7-7-7-7-7-7-7-7-|
E|------------------------------------||---------------------------------|

G|--------------------------------|--------------------------------|
D|--------------------------------|--------------------------------|
A|--5--4--5-5-5-5-5-5-5-5-5-5-5-5-|--4--3--4-4-4-4-4-4-4-4-4-4-4-4-|
E|--------------------------------|--------------------------------|

                                   6x 
G|---------------------------------||--------------------------------|
D|--------------------------------*||--------------------------------|
A|--3--2--3-3-3-3-3-3-3-3-3-3-3-3-*||--7--5--7-7-7-7-7-7-7-7-7-7-7-7-|
E|---------------------------------||--------------------------------|

G|--------------------------------|--------------------------------|
D|--------------------------------|--------------------------------|
A|--5--4--5-5-5-5-5-5-5-5-5-5-5-5-|--4--3--4-4-4-4-4-4-4-4-4-4-4-4-|
E|--------------------------------|--------------------------------|


    |----3----|    |----3----|                                      
G|--------------------------------|--------------------------------|
D|--------------------------------|--------------------------------|
A|--3----2-------------------2----|--7--5--7-7-7-7-7-7-7-7-7-7-7-7-|
E|------------3----2----3---------|--------------------------------|

G|--------------------------------|--------------------------------|
D|--------------------------------|--------------------------------|
A|--5--4--5-5-5-5-5-5-5-5-5-5-5-5-|--4--3--4-4-4-4-4-4-4-4-4-4-4-4-|
E|--------------------------------|--------------------------------|

    |----3----|    |----3----|                              
G|--------------------------------|-----------------------|
D|--------------------------------|--------7--------------|
A|--3----2-------------------2----|--7--5-----------------|
E|------------3----2----3---------|-----------------------|



Leave your comments about this lesson