Bon Jovi

Saturday Night Gave Me Sunday Morning

Saturday Night Gave Me Sunday Morning by Bon Jovi Bass Tab and Video Lesson

127 BPM 127 BPM

Level: Easy

Genre:Hard Rock

Instrument:4 String Bass

NOTES

Learn how to play on Bass Guitar "Saturday Night Gave Me Sunday Morning" by Bon Jovi

G|-----------------------|-------------------|---------------------|
D|---------------2s------|--7----------------|--L--------10--------|
A|-----------------------|-------------------|---------------------|
E|-----------------------|-------------------|---------------------|


G|-------------------|--------------------|--------------------------|
D|--3----------------|--L-----------------|--------------------------|
A|-------------------|--------------------|--3--3--3--3--3--3--3--3--|
E|-------------------|--------------------|--------------------------|


G|--------------------------|--------------------------|
D|--------------------------|--------------------------|
A|--3--3--3--3--3--3--3--3--|--------------------------|
E|--------------------------|--3--3--3--3--3--3--3--3--|


G|--------------------------|--------------------------|
D|--------------------------|--------------------------|
A|--------------------------|--------------------------|
E|--3--3--3--3--3--3--3--3--|--5--5--5--5--5--5--5--5--|


G|--------------------------|---------------------------|
D|--------------------------|---------------------------|
A|--------------------------|-----------------------5s--|
E|--5--5--5--5--5--5--5--5--|--3--3--3--3--3--3--3------|


G|----------------------------------||
D|----------------------------------||
A|--10--10--10--10--10--10--10--10--||
E|----------------------------------||



G|------------------------------|------------------------|
D|------------------------------|------------------------|
A|--3------3--3--3--3--3--3--3--|--3--3--3--3--5----7----|
E|------------------------------|------------------------|


G|--------------------------|------------------------|--------------------------|
D|--5--5--5--5--5--5--5--5--|--5--5--5--5------------|--------------------------|
A|--------------------------|--------------0----2----|--0--0--0--0--0--0--0--0--|
E|--------------------------|------------------------|--------------------------|


G|------------------------|--------------------------|-------------------------||
D|------------------------|--------------------------|--------------5----7----*||
A|--0--0--0--0--2----3----|--8--8--8--8--8--8--8--8--|--8--8--8--8------------*||
E|------------------------|--------------------------|-------------------------||


G|--------------------------|--------------------------|
D|--------------------------|--------------------------|
A|--8--8--8--8--8--8--8--8--|--3--3--3--3--3--3--3--3--|
E|--------------------------|--------------------------|


G|--------------------------||
D|--------------------------||
A|--3--3--3--3--3--3--3--3--||
E|--------------------------||



G|-------------------------------|--------------------------|
D|----------------5-----------5--|--------------------------|
A|--3-------3--3-----3--3--3-----|--3--3--3--3--3--3--3--3--|
E|-------------------------------|--------------------------|


G|--------------------------|--------------------------|
D|--5--5--5-----5--5--5-----|--5--5--5--5--5--5--5--5--|
A|-----------5-----------5--|--------------------------|
E|--------------------------|--------------------------|


G|--------------------------|--------------------------|
D|--------------------------|--------------------------|
A|--0--0--0-----0--0--0-----|--0--0--0--0--0--0--0--0--|
E|-----------0-----------0--|--------------------------|


G|--------------------------|------------------------||
D|--------------------------|------------------------||
A|-----------5-----------5--|-------------------2----||
E|--3--3--3-----3--3--3-----|--3--3--3--3--5---------||



G|-------------------------------|--------------------------|
D|--5-------5--5--5--5--5--5--5--|--5--5--5--5--5--5--5--5--|
A|-------------------------------|--------------------------|
E|-------------------------------|--------------------------|


G|-------------------------|--------------------------|--------------------------|
D|-------------------------|--------------------------|--------------------------|
A|-------------------------|--------------------------|--------------------------|
E|--1--1--1--1--1--1--5----|--3--3--3--3--3--3--3--3--|--5--5--5--5--5--5--5--5--|


G|--------------------------|-------------------------|--------------------------|
D|--------------------------|--3--3--3--3--3--3--7----|--5--5--5--5--5--5--5-----|
A|-----------------------3--|-------------------------|-----------------------5--|
E|--1--1--1--1--1--1--1-----|-------------------------|--------------------------|


G|-------------------------|--------------------------|-----------------------|
D|--7--7--7--7--7--7--7----|--3--3--3--3--3--3--3--3--|-----------------------|
A|-------------------------|--------------------------|--7----L----------7----|
E|-------------------------|--------------------------|----------7--L---------|


G|-------------------|-----------------------|-----------------------|
D|-------------------|-----------------------|-----------------------|
A|--0----------------|--7----L----------7----|--0----L--0--4----7----|
E|-------------------|----------7--L---------|-----------------------|


G|----------------------|---------------------------|--------------------|
D|----------------------|---------------------------|--------------------|
A|--8----7----5----3----|-----------------------5s--|--10----------------|
E|----------------------|--3--3--3--3--3--3--3------|--------------------|


G|--------------------||
D|--------------------||
A|---L----------------||
E|--------------------||



Last Chorus

G|-----------------------------------|------------------------|
D|-----------------------------------|------------------------|
A|--3-----------3--3--3--3--3--3--3--|--3--3--3--3--5----7----|
E|-----------------------------------|------------------------|


G|--------------------------|------------------------|--------------------------|
D|--5--5--5--5--5--5--5--5--|--5--5--5--5------------|--------------------------|
A|--------------------------|--------------0----2----|--0--0--0--0--0--0--0--0--|
E|--------------------------|------------------------|--------------------------|


G|------------------------|--------------------------|-------------------------||
D|------------------------|-----------------------5--|--3--3--3--3--2----0----*||
A|--0--0--0--0--2----3----|--------------------3-----|------------------------*||
E|------------------------|--1--1--1--1--3--5--------|-------------------------||


G|--------------------------|----------------------||
D|--------------------------|----------------------||
A|--------------------------|-----------------2----||
E|--1--1--1--1--1--1--1--1--|--1----3----5---------||



G|-----------------------------|--------------------------|
D|-----------------------------|--------------------------|
A|--3-----3--3--3--3--3--3--3--|--3--3--3--3--3--3--3--3--|
E|-----------------------------|--------------------------|


G|--------------------------|------------------------|--------------------------|
D|--5--5--5--5--5--5--5--5--|--5--5--5--5------------|--------------------------|
A|--------------------------|--------------0----2----|--0--0--0--0--0--0--0--0--|
E|--------------------------|------------------------|--------------------------|


G|--------------------------|-----------------------|-----------------------|
D|--------------------------|-----------------------|-----------------------|
A|--0--0--0--0--0--0--0--0--|-----------------------|------------------2----|
E|--------------------------|--1----L--1--L----1----|--L--3--L----5---------|


G|-------------------||
D|-------------------||
A|--3----------------||
E|-------------------||



Leave your comments about this lesson