Cee Lo Green

Fuck You

Fuck You by Cee Lo Green Bass Tab and Video Lesson

Level: Intermediate

Genre:R&B

Instrument:4 String Bass

NOTES

How to play Fuck You by Cee Lo Green in Bass Guitar.

G|--------------------------------------------|-------------------------|
D|--------------------------------------------|-------------------------|
A|--------------------------------------------|--3-------------------5--|
E|----------------------------------8\--------|----------------3--5-----|

G|------------------------|-----------------------|-----------------------|
D|*--------------0--2-----|-----------------------|-----------------------|
A|*-----------------------|--------------------3--|--------------------3--|
E|---------------------1--|--------------1--3-----|--------------3--5-----|

G|------------------------||---------------------|
D|-----------------------*||---------------------|
A|--------------------5--*||---------------------|
E|--------------3--5------||-----------8\--------|



G|------------------------------------------------------|
D|------------------------------------------------------|
A|--3------------------------------------------------5--|
E|---------------------------------------------3--5-----|

G|------------------------|-----------------------|-----------------------|
D|*--------------0--2-----|-----------------------|-----------------------|
A|*-----------------------|--------------------3--|--------------------3--|
E|---------------------1--|--------------1--3-----|--------------3--5-----|

G|------------------------||---------------------|
D|-----------------------*||---------------------|
A|--------------------5--*||---------------------|
E|--------------3--5------||-----------8\--------|



G|-----------------------------------------9-----------|
D|---------------------------------------9---9---------|
A|--7--------------------------------L---------7--L----|
E|-----------------------------------------------------|

G|--------------------------|-----------------------|-------------------------|
D|-------------7------------|-----------/7----------|--------------5----------|
A|-----------7---7----7--6--|--5--------------5-----|-------5h--7-------5--6--|
E|--5----L---------5--------|---------------------x-|--3----------------------|

G|-------------9-------------|-----2-----4------5------6---|
D|-----------9---9-----------|-----------------------------|
A|--7----L---------7--L--7-x-|--0-----2----x-3----x-4----x-|
E|---------------------------|-----------------------------|

G|----------7----9---10-11--L\-----|-------------------------|
D|------7-9---9--------------------|-------------------------|
A|--5------------------------------|-------------------------|
E|-------------------------------x-|--3--------/15----15\----|

G|---------------------|---------------------|--------------------5-4-----|
D|--0------------------|--3------------------|----------------5-7------5--|
A|---------------------|---------------------|------------5-7-------------|
E|---------------------|---------------------|--3-------------------------|

G|----------------------|-----------------------|------------------------|
D|----------------------|--0--------------------|------------------------|
A|--0----2----3----4----|-----------------------|------------------------|
E|----------------------|---------------------x-|--1--------------15\----|

G|--------------------------|---------------------------|
D|--------------------------|--5------------------------|
A|--------------------------|---------------------------|
E|--3--3--3--3--3--3--3--3--|-------------/15----15\----|



Special Slow

G|-----------------------------------------9-----------|
D|---------------------------------------9---9---------|
A|--7--------------------------------L---------7--L----|
E|-----------------------------------------------------|

G|--------------------------|-----------------------|-------------------------|
D|-------------7------------|-----------/7----------|--------------5----------|
A|-----------7---7----7--6--|--5--------------5-----|-------5h--7-------5--6--|
E|--5----L---------5--------|---------------------x-|--3----------------------|

G|-------------9-------------|-----2-----4------5------6---|
D|-----------9---9-----------|-----------------------------|
A|--7----L---------7--L--7-x-|--0-----2----x-3----x-4----x-|
E|---------------------------|-----------------------------|

G|----------7----9---10-11--L\-----|-------------------------|
D|------7-9---9--------------------|-------------------------|
A|--5------------------------------|-------------------------|
E|-------------------------------x-|--3--------/15----15\----|

G|---------------------|---------------------|--------------------5-4-----|
D|--0------------------|--3------------------|----------------5-7------5--|
A|---------------------|---------------------|------------5-7-------------|
E|---------------------|---------------------|--3-------------------------|

G|----------------------|-----------------------|------------------------|
D|----------------------|--0--------------------|------------------------|
A|--0----2----3----4----|-----------------------|------------------------|
E|----------------------|---------------------x-|--1--------------15\----|

G|--------------------------|---------------------------|
D|--------------------------|--5------------------------|
A|--------------------------|---------------------------|
E|--3--3--3--3--3--3--3--3--|-------------/15----15\----|



Leave your comments about this lesson