Colbie Caillat

Bubbly

Bubbly by Colbie Caillat Bass Tab and Video Lesson

64 BPM 64 BPM

Level: Easy

Genre:Pop Music

Instrument:4 String Bass

NOTES

Play Bubbly by Colbie Caillat in Bass Guitar using Bass Tabs, Video Lessons and Guitar Pro Files.

Chorus and Verse

G|-----------------------------------|----------------------------|
D|--------------6s-7--6--6\----------|----------------------------|
A|-----------------------------5s-7--|--5--5----5\----------7s-5--|
E|--5------5-------------------------|--------------5--5----------|


G|-------------------------------|-------------------------||
D|----------6s-7--6--6\----------|-------------------------||
A|-------------------------5s-7--|--5--5----5\-------------||
E|--5--5-------------------------|--------------5--5-------||



G|-----------------------------------|--------------------------|
D|-----------------------------------|--------------------------|
A|----------7s-4-4--4--4--4--7s-4-4--|--4--4--5--5--5-----5--5--|
E|-----------------------------------|-----------------5--------|


G|--------------------------|--------------------------|---------------------||
D|--------------------------|--------------------------|---------------------||
A|--5-----7--7--7-----7--7--|--5--4--------------4--4--|--4--4--5------------||
E|-----5-----------7--------|--------7--7--7--7--------|---------------------||



Voice Solo

G|---------------------------------------|----------------------------|
D|------------------6s-7--6--6\----------|----------------------------|
A|---------------------------------5s-7--|--5--5----5\----------7s-5--|
E|--5----------5-------------------------|--------------5--5----------|


G|-------------------------------|----------------------------||
D|----------6s-7--6--6\----------|----------------------------||
A|-------------------------5s-7--|--5--5----5\----------7s-5--||
E|--5--5-------------------------|--------------5--5----------||



Final Verse

G|---------------------------------|-------------------------||
D|---------------------6--6----L\--|------------------------*||
A|---------------------------------|--5--5----L\------------*||
E|--5-----------5------------------|--------------5--5-------||



G|------------------------------|-----------------------|
D|------------------------------|-----------------------|
A|--11s-12-------L-11-------L\--|--5------L/--12--------|
E|------------------------------|-----------------------|


G|-------------------------|-----------------------||
D|-------------------------|-----------------------||
A|--12--------11-------L\--|--5------L/--12--------||
E|-------------------------|-----------------------||



Leave your comments about this lesson