Creedence Clearwater Revival

Green River

Green River by Creedence Clearwater Revival Bass Tab and Video Lesson

138 BPM 138 BPM

Level: Easy

Genre:Rock

Instrument:4 String Bass

NOTES

Learn how to play Green River by CCR in Bass Guitar.

G|------------------------------------|----------------------|
D|------------------------------------|------------7----5----|
A|--7---------------------------------|--7------7------------|
E|---------------------------7--------|----------------------|


G|--------------------|---------------------||
D|--------------------|-----------7----5----||
A|--7-----------------|--7------------------||
E|-----------7--------|---------------------||



G|--------------------------------------|----------------------|
D|--------------------------------------|------------7----5----|
A|--7-----------------------------------|--7------7------------|
E|-----------------------------7--------|----------------------|


G|--------------------|----------------------|--------------------|
D|--------------------|------------7----5----|--------------------|
A|--7-----------------|--7------7------------|--7-----------------|
E|-----------7--------|----------------------|-----------7--------|


G|----------------------|--------------------|----------------------|
D|------------7----5----|--------------------|------------7----5----|
A|--7------7------------|--7-----------------|--7------7------------|
E|----------------------|-----------7--------|----------------------|


G|--------------------|----------------------|--------------------|
D|--------------------|----------------------|-----------5--------|
A|--7-----------------|--7------7--7---------|--3-----------------|
E|-----------7--------|-----------------7----|--------------------|


G|---------------------|--------------------|-----------------------|
D|---------------------|--------------------|-----------------------|
A|--3--------3---------|--------------------|-----------------------|
E|----------------3----|--5--------0--------|--5----5--5--6----7----|


G|---------------------|----------------------||
D|-------9-------------|------------7----5----||
A|--7------------------|--7------7------------||
E|------------7--------|----------------------||



Guitar Solo

G|-------------------------------------------|----------------------|
D|-------------------------------------------|------------7----5----|
A|--7----------------------------------------|--7------7------------|
E|----------------------------------7--------|----------------------|


G|--------------------|----------------------|--------------------|
D|--------------------|------------7----5----|--------------------|
A|--7-----------------|--7------7------------|--7-----------------|
E|-----------7--------|----------------------|-----------7--------|


G|----------------------|--------------------|---------------------|
D|------------7----5----|--------------------|---------------------|
A|--7------7------------|--7-----------------|--7--------7---------|
E|----------------------|-----------7--------|----------------7----|


G|--------------------|---------------------|--------------------|
D|-----------5--------|----------------5----|--------------------|
A|--3-----------------|--3--------3---------|--------------------|
E|--------------------|---------------------|--5--------0--------|


G|-----------------------|--------------------|----------------------||
D|-----------------------|--------------------|------------7----5----||
A|-----------------------|--7-----------------|--7------7------------||
E|--5----5--5--6----7----|-----------7--------|----------------------||



G|-------------------------------------|----------------------|
D|-------------------------------------|------------7----5----|
A|--7----------------------------------|--7------7------------|
E|----------------------------7--------|----------------------|


G|--------------------|----------------------|--------------------|
D|--------------------|------------7----5----|--------------------|
A|--7-----------------|--7------7------------|--7-----------------|
E|-----------7--------|----------------------|-----------7--------|


		         3x
G|-----------------------||
D|------------7----5----*||
A|--7------7------------*||
E|-----------------------||



Leave your comments about this lesson