Curtis Mayfield

Pusherman

Pusherman by Curtis Mayfield Bass Tab and Video Lesson

Level: Easy

Genre:R&B

Instrument:4 String Bass

NOTES

How to play Pusherman by Curtis Mayfield in Bass Guitar.

G|-------------------------------------||------------------------|
D|-------------------------------------||*--------3--------L--1--|
A|-------------------------------------||*-----------------------|
E|----------------------------------1--||---1--------------------|

G|----------------------|-----------------------|-----------------------||
D|--L-------------------|--------3--------L--1--|--L-------------------*||
A|---------3----1----3--|-----------------------|---------3----1----3--*||
E|----------------------|--1--------------------|-----------------------||

G|-----------------------|----------------------|-----------------------|
D|--------3--------L--1--|--L-------------------|--------3--------L--1--|
A|-----------------------|---------3----1----3--|-----------------------|
E|--1--------------------|----------------------|--1--------------------|

G|----------------------|-----------------------|----------------------|
D|--L-------------------|--------3--------L--1--|--L-------------------|
A|---------3----1----3--|-----------------------|---------3----1----3--|
E|----------------------|--1--1-----------------|----------------------|

G|-----------------------|----------------------|
D|--------3--------L--1--|--L-------------------|
A|-----------------------|---------3----1----3--|
E|--1--------------------|----------------------|



Guitar Solo

G|---------------------------------------------|----------------------------|
D|-----------------------------3--------L------|----3-------------------1---|
A|---------------------------------------------|------x--0------x-1--3----3-|
E|--1-----------------------1--------------1-1-|----------------------------|

G|---------------------|----------------------------|------------------------|
D|--------3------------|--3-3--x----------------1---|--------3--------L------|
A|---------------------|---------0------x-1--3----3-|------------------------|
E|--1--1---------------|----------------------------|--1--1--------------1-1-|

G|----------------------------|-----------------------|----------------------|
D|----3-------------------1---|--------3--------L--1--|--L-------------------|
A|------x--0------x-1--3----3-|-----------------------|---------3----1----3--|
E|----------------------------|--1--------------------|----------------------|

G|-----------------------|----------------------|
D|--------3--------L--1--|--L-------------------|
A|-----------------------|---------3----1----3--|
E|--1--1-----------------|----------------------|



G|---------------------------------|-------/5~------------|
D|---------------------------------|----------------------|
A|---------------------4------8----|----------------------|
E|--6------------------------------|----------------------|

                                                    3x
G|-----------------------|--------------------------||---------------------|
D|----------8----6-------|-------------------------*||---------------------|
A|--------------------8--|--L--/4---------------4--*||---------4------8----|
E|-----------------------|-------------6--4--6------||--6------------------|

G|-------/5~------------|-----------------------|-------------------------|
D|----------------------|----------8----6-------|-------------------------|
A|----------------------|--------------------8--|--L--/4------------------|
E|----------------------|-----------------------|-------------6--4--6--4--|



Leave your comments about this lesson