Deep Purple

Hush

Hush by Deep Purple Bass Tab and Video Lesson

Level: Intermediate

Genre:Hard Rock

Instrument:4 String Bass

NOTES

How to play Hush by Deep Purple in Bass Guitar.

G|---------------------|---------------------|---------------------|
D|---------------------|---------------------|---------------------|
A|--1------------1-----|---------------------|---------------------|
E|---------------------|--4------------4-----|--1------------1-----|

G|---------------------|-------------------|-----------------------|
D|---------------------|-------------------|-----------------------|
A|---------------------|-------------------|-----------------1--2--|
E|--3------------3-----|-------------------|--------------3--------|

                                 6x 
G|-------------------------------||---------------------------|
D|*-----------------------------*||------------------8-----8--|
A|*--3--3--3--1-3-3-3--3-3--1-2-*||---------------6--6--6--6--|
E|-------------------------------||--4--4--6-4-4--------------|

G|-----10----------------------|-----------------------------|
D|--8---8--10-8----------------|-----------------------------|
A|---------------8-L--8--6--6--|--3--3--3--1-3-3-3--3-3--1-2-|
E|-----------------------------|-----------------------------|

G|-----------------------------|---------------------------|
D|-----------------------------|------------------8-----8--|
A|--3--3--3--1-3-3-3--3-3--1-2-|---------------6--6--6--6--|
E|-----------------------------|--4--4--6-4-4--------------|

G|----------------------------|-----------------------------|
D|----------------------------|-----------------------------|
A|--------5-6--------------1--|--3--3--3--1-3-3-3--3-3--1-0-|
E|--6--6-------1-L--1-1-L-----|-----------------------------|

G|----------------------------|
D|----------------------------|
A|--3--3--3--1-3-3-3--3-3--1--|
E|----------------------------|



                                4x
G|------------------------------|
D|*----------------------------*|
A|*--3--3--3--1-3-3-3--3-3--1--*|
E|------------------------------|



G|---------------------------|-----10----------------------|
D|------------------8-----8--|--8------10-8----------------|
A|---------------6-----6-----|---------------8-L--8--6--6--|
E|--4--4--6-4-4--------------|-----------------------------|

G|-----------------------------|----------------------------|
D|-----------------------------|----------------------------|
A|--3--3--3--1-3-3-3--3-3--1-2-|--3--3--3--1-3-L-3--3-3-----|
E|-----------------------------|-------------------------3--|

G|---------------------------|-----10----------------------|
D|------------------8-----8--|--8------10-8----------------|
A|---------------6-----6-----|---------------8-L--8--6--6--|
E|--4--4--6-4-4--------------|-----------------------------|

G|-----------------------------|----------------------------|
D|-----------------------------|----------------------------|
A|--3--3--3--1-3-3-3--3-3--1-2-|--3--3--3--1-3-3-3--3-3--3--|
E|-----------------------------|----------------------------|



G|----------------------------|-------------3-L--3-3----5--|
D|----------------------------|--3--3--3-3-----------3-----|
A|--3--3--3--1-3-3-3--3-3--1--|----------------------------|
E|----------------------------|----------------------------|



G|-----------------------------|--------------------------------|
D|-----------3-3h-5-3-3--3--5--|-----------------3s-5-3s-5-3s-5-|
A|--3---3-L--------------------|--3---3-L--3--3-----------------|
E|-----------------------------|--------------------------------|

G|-----------------------------|-----------------------------|
D|-----------3-3h-5-3-3--3--5--|-----------3-3h-5-3-3--3--5--|
A|--3---3-L--------------------|--3---3-L--------------------|
E|-----------------------------|-----------------------------|



G|----------------------------|----------------------------|
D|---------------1-1--1-1--1--|-----------0-1--------------|
A|-----------3-4--------------|--1--1--1----------------1--|
E|--4--4--4-------------------|---------------1-1--1-1-----|

G|----------------------------|----------------------------|
D|----------------------------|----------------------------|
A|--3--3--3--1-3-3-3--3-3--1--|--3--3--3--1-3-3-3--3-3-----|
E|----------------------------|-------------------------3--|

G|----------------------------|----------------------------|
D|---------------1-1--1-1--1--|-----------0-1--------------|
A|-----------3-4--------------|--1--1--1----------------1--|
E|--4--4--4-------------------|---------------1-1--1-1-----|

G|----------------------------|----------------------------|
D|----------------------------|----------------------------|
A|--3--3--3--1-3-3-3--3-3--1--|--3--3--3--1-3-3-3--3-3-----|
E|----------------------------|-------------------------3--|



Organ Solo

                                 4x
G|-------------------------------|
D|*-----------------------------*|
A|*--3--3--3--1-3-3-3--3-3--1-2-*|
E|-------------------------------|



G|--------------------------|--------------------------|
D|--------------------------|--------------------6--7--|
A|--------------------------|--6--6--6--6--6--6--------|
E|--4--4--4--4--4--4--6--4--|--------------------------|

G|--------------------------|--------------------------|---------------------|
D|--------------------------|--------------3--1--3--1--|---------------------|
A|--------------------------|-----------3--------------|--3------------------|
E|--6--6--6--6--6--6--8--6--|--1--1--1-----------------|---------------------|



Leave your comments about this lesson