Ed Sheeran

Thinking Out Loud

Thinking Out Loud by Ed Sheeran Bass Tab and Video Lesson

79 BPM 79 BPM

Level: Easy

Genre:Pop Music

Instrument:4 String Bass

NOTES

How to play in Bass Guitar "Thinking Out Loud" by Ed Sheeran.

G|-------------------------|-----------------------|------------------------|
D|-----------4--L----L\----|--5-------7--L---------|----------4--L----L\----|
A|--5----------------------|------------------4----|--5---------------------|
E|-------------------------|-----------------------|------------------------|


G|------------------------||-------------------------|-----------------------|
D|--5-------7--L---------*||--5-------7--L-----------|------------------5----|
A|------------------4----*||------------------4--5-6-|--7-------7--L---------|
E|------------------------||-------------------------|-----------------------|


G|----------------------|------------------------|------------------------|
D|--7-------------------|-------------------5----|--7-------7-------------|
A|----------5--L--------|--7-------7--L--7-------|-------------4--5--7----|
E|----------------------|------------------------|------------------------|


G|-----------------------|------------------------|-----------------------|
D|-----------------------|------------------------|-----------------------|
A|-----------------------|------------------------|-----------------------|
E|--0-------0--L----3----|--5-------7--L----L\----|--0-------0--L----3----|


G|-------------------------||
D|-------------------------||
A|-------------------------||
E|--5--5--5--5--5----------||



G|---------------------------|------------------------|
D|------------4--L--4--L\----|--5-------7--L----------|
A|--5------------------------|------------------4--5--|
E|---------------------------|------------------------|


G|-------------------------|-------------------------||----------------------|
D|----------4--L--4--4\----|--5-------7--L----------*||--9----7----5----4----|
A|--5----------------------|------------------4--5--*||----------------------|
E|-------------------------|-------------------------||----------------------|


G|-------2--------------||
D|--2-------0--L--------||
A|----------------------||
E|----------------------||



Guitar Solo

G|--------------------------------|------------------------|
D|-----------------4--L--4--L\----|--5-------7--L----------|
A|--5-----------------------------|------------------4--5--|
E|--------------------------------|------------------------|


G|-------------------------|-------------------------|-------------------------|
D|----------4--L--4--4\----|--5-------7--------------|----------4--L--4--L\----|
A|--5----------------------|-------------4--5--7--4--|--5----------------------|
E|-------------------------|-------------------------|-------------------------|


G|------------------------|-------------------------|--------------------------||
D|--5-------7--L----------|----------4--L--4--4--4--|--5--5--5--7--7--7--------||
A|------------------4--5--|--5----------------------|--------------------4--5--||
E|------------------------|-------------------------|--------------------------||



G|-----------------------|-------2------------2-----|----------------------|
D|--9-----7----5----4----|--2-------0--L--/4-----4--|--9----7----5----4----|
A|-----------------------|--------------------------|----------------------|
E|-----------------------|--------------------------|----------------------|


G|-------2--------------------|----------------------|----------------------||
D|--2-------0--L--2h-4-2-0----|----------------------|----------------------||
A|-------------------------0--|--2----0--------------|----------5--L--------||
E|----------------------------|------------3----2----|--0----5--------------||



Leave your comments about this lesson