Elvis Presley

Burning Love

Burning Love by Elvis Presley Bass Tab and Video Lesson

Level: Intermediate

Genre:Rock

Instrument:4 String Bass

NOTES

How to play Burning Love by Elvis Presley in Bass Guitar.

Intro and Verse

G|------------------------------------------|-------------------------| 
D|------------------------------------------|--0--0--2----3--4--------| 
A|---------------------------------0--2--0--|-------------------0--2--| 
E|------------------------------------------|-------------------------| 

G|-------------------------|---------------------------| 
D|--0--0--2----3--4--------|*--0--0--------0--0--------| 
A|-------------------0--2--|*--------2--0--------2--0--| 
E|-------------------------|---------------------------| 

G|--------------------------|--------------------------| 
D|-----------0--------------|--0--0--------0--------0--| 
A|--------2-----0--0--4--0--|--------2--0-----2--0-----| 
E|--3--3--------------------|--------------------------| 

G|---------------------------| 
D|--L--0--------0-----------*| 
A|--------2--0-----2--0--2--*| 
E|---------------------------| 



G|---------------------------------------|--------------------------| 
D|---------------------------------------|-----------0--L--3--2--0--| 
A|--2---------------------2----0----0----|-----2--L-----------------| 
E|---------------------------------------|--3-----------------------| 

G|----------------------|--------------------------|----------------------| 
D|----------------------|-----------0--L--3--2--0--|----------------------| 
A|--2----2----0----0----|-----2--L-----------------|--2----2----0----0----| 
E|----------------------|--3-----------------------|----------------------| 

G|--------------------------|--------------------------| 
D|--------------------------|--0--0--------0--------0--| 
A|--------------------------|--------2--0-----2--0-----| 
E|--3--2--3--4--5--5--3--5--|--------------------------| 

G|--------------------------| 
D|--L--0--3--4--0-----------| 
A|-----------------2--0--2--| 
E|--------------------------| 



G|--------------------------------------------|--------------------------| 
D|--0--------------------0--------0-----------|--------------------------| 
A|--------------------------2--0--------------|-----2--L--3--L--4--L--0--| 
E|-----------------------------------0--L--3--|--L-----------------------| 

G|--------------------------|--------------------------| 
D|--0--0--------0-----------|--------------------------| 
A|--------2--0--------------|-----2--L--3--L--4--L--0--| 
E|-----------------0--L--3--|--L-----------------------| 

G|--------------------------|--------------------------| 
D|--0--0--3--4--0-----------|--------------------------| 
A|-----------------0--L-----|-----2--L--3--L--4--L--0--| 
E|-----------------------3--|--L-----------------------| 

G|--------------------------|--------------------------| 
D|--0--0--3--4--0-----------|--------------------------| 
A|-----------------0--L-----|-----2--L--3--L--4--L--0--| 
E|-----------------------3--|--L-----------------------| 



Leave your comments about this lesson