Foo Fighters

Congregation

Congregation by Foo Fighters Bass Tab and Video Lesson

152 BPM 152 BPM

Level: Intermediate

Genre:Rock

Instrument:4 String Bass

NOTES

Play on Bass Guitar "Congregation" by Foo Figthers with complete Tabs and Video Lessons.

G|------------------------|-------------------------|-------------------------|
D|------------------------|-------------------------|-------------------------|
A|------------------------|-----5--L----5--4--2--0--|--L----0---0----0--L-----|
E|--3-----L--2--L----0----|--L----------------------|-------------2--------2--|


G|---------------------------||
D|--------------------------*||
A|--0-----0---0----0--L-----*||
E|-----2--------2--------2---||



G|------------------------|--------------------------|------------------------|
D|------------------------|--------------------------|------------------------|
A|------------------------|-----5--L--5--5--4--2--0--|--L----0-------0--L-----|
E|--3-----L--2--L----0----|--L-----------------------|------------2--------2--|


G|-------------------------||
D|------------------------*||
A|--0-----0-------0--L----*||
E|-----2-------2-----------||



Pre-Chorus

G|------------------------------|-------------------------|
D|------------------------------|-------------------------|
A|------------------------------|-------------------------|
E|--0----------0----0--0--3--0--|--L--0--0----0--0--7\----|


G|-------------------------|------------------------|------------------------|
D|-------------------------|------------------------|------------------------|
A|----------------------5--|--L--5--5----5-----5----|------------------------|
E|--3----3----3--3h--5-----|----------------5-------|--0----0----0--0--2--3--|


G|------------------------|----------------------|----------------------||
D|------------------------|----------------------|----------------------||
A|------------------------|----------------------|----------------------||
E|--L--3--3----3--3--L----|--5----5----5----5----|--5----5----5----5----||



G|-----------------------------|-------------------------|
D|-----------------------------|-----4--L----4--4--4-----|
A|--5------5--5--5--L----5--5--|--5----------------------|
E|-----------------------------|----------------------5--|


  						       3x
G|---------------------------|-------------------------||
D|---------------------------|------------------------*||
A|------------------------7--|--L--7--7----7--7--7----*||
E|--L--5--5--5--5--5h--7-----|-------------------------||


G|-------------------------|-------------------------|------------------------|
D|-------------------------|-----4--L----4--4--4--2--|--L----2----2--2--4--5--|
A|--5--5--5--5--L----5--5--|--5----------------------|------------------------|
E|-------------------------|-------------------------|------------------------|


G|---------------------------||
D|--L--5--4--4--2--2---------||
A|---------------------------||
E|--------------------10\----||



Guitar Solo

G|------------------------------|-------------------------|
D|------------------------------|-------------------------|
A|------------------------------|-----5--L----5--4--2--0--|
E|--3-----------L--2--L----0----|--L----------------------|


G|-------------------------|---------------------------||------------------------|
D|-------------------------|--------------------------*||------------------------|
A|--L----0---0----0--L-----|--0-----0---0----0--L-----*||------------------------|
E|-------------2--------2--|-----2--------2--------2---||--0----0----0--0--3--0--|


G|-------------------------|-------------------------|------------------------|
D|-------------------------|-------------------------|------------------------|
A|-------------------------|----------------------5--|--L--5--5----5--5--5----|
E|--L--0--0----0--0--7\----|--3----3----3--3h--5-----|------------------------|


G|------------------------|-------------------------|-------------------------|
D|------------------------|-------------------------|-------------------------|
A|------------------------|-------------------------|----------------------5--|
E|-------0----0--0--3--0--|--L--0--0----0--0--7\----|--3----3----3--3h--5-----|


G|------------------------|------------------------|-------------------------|
D|------------------------|------------------------|-------------------------|
A|--L--5--5----5--5--5----|------------------------|-------------------------|
E|------------------------|-------0----0--0--3--0--|--L--0--0----0--0--7\----|


G|-------------------------|----------------------------|------------------------|
D|-------------------------|----------------------------|------------------------|
A|----------------------5--|--L--5--5----5----5----5----|------------------------|
E|--3----3----3--3h--5-----|----------------------------|-------0----0--0--2--3--|


G|------------------------|----------------------------|
D|------------------------|----------------------------|
A|------------------------|-----------------------5g7--|
E|--L--3--3----3--3--3----|--5--5--5--5--5--5--5-------|


G|--------------------------|----------------------------|
D|--7--7--7--7--7--7--7--7--|--7--7--7--7--7--7--7-------|
A|--------------------------|-----------------------5g7--|
E|--------------------------|----------------------------|


G|--------------------------||
D|--7--7--7--7--7--7--7--7--||
A|--------------------------||
E|--------------------------||



G|---------------------|-------------------|---------------------|
D|---------------------|-------------------|---------------------|
A|------------------0--|--5----------------|--L------------L--5--|
E|---------------------|-------------------|---------------------|


G|-------------------|---------------------|-------------------|
D|--3----------------|--L------------L--3--|--5----------------|
A|-------------------|---------------------|-------------------|
E|-------------------|---------------------|-------------------|


G|---------------------|--------------------------|-------------------------|
D|--L------------L-----|--------------------------|-------------------------|
A|------------------0--|--5--5--5--5--5--0--5--5--|--5--5--5--0--5--0--5----|
E|---------------------|--------------------------|-------------------------|


G|--------------------------|-------------------------|--------------------------|
D|--3--3--3--3--3-----3--3--|--3--3--3-----3-----3----|--5--5--5--5--5-----5--5--|
A|-----------------3--------|-----------3-----3-------|-----------------5--------|
E|--------------------------|-------------------------|--------------------------|


G|-------------------------||---------------------------|
D|--5--5--5-----5-----5----||*--------------------------|
A|-----------5-----5-------||*--5--5--5--5--5--5--5--5--|
E|-------------------------||---------------------------|


G|--------------------------|--------------------------|
D|--------------------------|--------------------------|
A|--5--5--5--5--5--5--5--5--|--------------------------|
E|--------------------------|--1--1--1--1--1--1--1--1--|


G|--------------------------|--------------------------|
D|--------------------------|--------------------------|
A|--------------------------|--------------------------|
E|--1--1--1--1--1--1--1--1--|--3--3--3--3--3--3--3--3--|


G|---------------------------||--------------------------|
D|--------------------------*||--------------------------|
A|--------------------------*||--5--5--5--5--5--5--5--5--|
E|--3--3--3--3--3--3--3--3---||--------------------------|


G|--------------------------|--------------------------|
D|--------------------------|--------------------------|
A|--5--5--5--5--5--5--5--5--|--------------------------|
E|--------------------------|--1--1--1--1--1--1--1--1--|


G|--------------------------|--------------------|--------------------|
D|--------------------------|--------------------|--------------------|
A|--------------------------|--------------------|--------------------|
E|--1--1--1--1--1--1--1--1--|--3--3--3--3--3--3--|--3--3--3--3--3--3--|


G|--------------|-----------------------|-------------------------|
D|--------------|-----------------------|-------------------------|
A|--------------|-----------------------|-----5--L----5--4--2--0--|
E|--3--3--3--3--|--3----L--2--L----0----|--L----------------------|


G|-------------------------|--------------------------||
D|-------------------------|--------------------------||
A|--L----0---0----0--L-----|--0-----0---0----0--L-----||
E|-------------2--------2--|-----2--------2--------2--||



Leave your comments about this lesson