Foster the People

Pumped Up Kicks

Pumped Up Kicks by Foster the People Bass Tab and Video Lesson

128 BPM 128 BPM

Level: Beginner

Genre:Indie Rock

Instrument:4 String Bass

NOTES

Learn how to play on bass guitar "Pumped Up Kick" by Foster the People with Tabs, Video Lessons and Guitar Pro Files.

Intro and Verse

G|-----------------------------------|------------------------|
D|-----------------------------------|------------------------|
A|-----------------------------------|----------------1--3----|
E|--1------------------1-----1--3----|--4-------4-------------|


G|-------------------------|-------------------------|------------------------|
D|--1-------1-----1--------|-------------------------|------------------------|
A|-------------------------|--1-------1-----1--------|------------------------|
E|-------------------1---4-|-------------------3--4--|--1-------1-----1--3----|


G|------------------------|-------------------------|---------------------------||
D|------------------------|--1-------1--------------|---------------------------||
A|----------------1--3----|----------------------3--|--1-------1-----1h-3-1-----||
E|--4-------4-------------|----------------1--3-----|------------------------4--||



G|-----------------------------------|------------------------|
D|-----------------------------------|------------------------|
A|-----------------------------------|----------------1--3----|
E|--1------------------1-----1--3----|--4-------4-------------|


G|-------------------------|-------------------------|------------------------|
D|--1-------1-----1--------|-------------------------|------------------------|
A|-------------------------|--1-------1-----1--------|------------------------|
E|-------------------1---4-|-------------------3--4--|--1-------1-----1--3----|


G|------------------------|-------------------------|---------------------------||
D|------------------------|--1-------1--------------|---------------------------||
A|----------------1--3----|----------------------3--|--1-------1-----1h-3-1-----||
E|--4-------4-------------|----------------1--3-----|------------------------4--||



Leave your comments about this lesson

More Indie Rock Songs