Gary Moore

Still Got the Blues

Still Got the Blues by Gary Moore Bass Tab and Video Lesson

81 BPM 81 BPM

Level: Easy

Genre:Hard Rock

Instrument:4 String Bass

NOTES

How to play Still Got the Blues by Gary Moore in Bass Guitar.

Intro

G|-------------------------------------------------------| 
D|------------------3-2-----2----------------------------| 
A|--5-------3-----------2--------2-------7------------7--| 
E|------3-------1------------------3-5-----8-5----5-8----| 



Verse

G|-------------------------------------------------------| 
D|-------5-------3---3-2-----2---------------------------| 
A|--5--------3-----------2-------2-----------------7-----| 
E|---------------------------------3-5--7--8---5-8-------| 

G|-------------------------------------------------------| 
D|------5-------3---3-2----------------------------------| 
A|--5-------3-----------2---2----------------------------| 
E|------------------------------0-0-0-0-0-0-0-0-0-0-0-3--| 



Bridge 1

G|-------------------------------------------------------| 
D|-------------------------------------------------------| 
A|----------------5---------------5h7------------7-------| 
E|--5---0---3-5-------1---0---5-------8-5----5-8---------| 



Bridge 2

G|-------------------------------------------------------| 
D|-------------------------------------------------------| 
A|----------------5--------------------------------------| 
E|--5---0---3-5-------1---0---5---5---5-6----------------| 



Special

G|-------------------------------------------------------| 
D|-------------------------------------------------------| 
A|------7---2--------------------------------------------| 
E|--7---------3-5--7--8---5-6----------------------------| 

G|-------------------------------------------------------| 
D|-------------------------------------------------------| 
A|------7---7-8--7--5-------7------------7---------------| 
E|--7-------------------5-----8-5----5-8-----------------| 



Solo

G|-------------------------------------------------------| 
D|-------5-------3---3-2-----2---------------------------| 
A|--5--------3-----------2-------2-----------------7-----| 
E|---------------------------------3-5--7--8---5-8-------| 

G|-------------------------------------------------------| 
D|------------------3-2----------------------------------| 
A|--5-------3-----------2---2-----------------------2----| 
E|------3-------1---------------0-0-0-0-0-0-0-0-0-0---3--| 



Bridge 3

G|-------------------------------------------------------| 
D|-------------------------------------------------------| 
A|----------------5--------------------------------------| 
E|--5---0---3-5-------1---0---5---0-0-0-0-3--------------| 

G|-------------------------------------------------------| 
D|-------------------------------------------------------| 
A|----------------5--------------------------------------| 
E|--5-----0---3-5-------1----0---------------------------| 



Leave your comments about this lesson