Heart

What About Love

What About Love by Heart Bass Tab and Video Lesson

80 BPM 80 BPM

Level: Beginner

Genre:Rock

Instrument:4 String Bass

NOTES

Learn how to play "What About Love" this classic hit by Heart in Bass Guitar. Complete and accurate tabs and video lessons.

					         4x
G|-----------------------/7-|--L-----------------||
D|--------------------------|-------------------*||
A|--5----------------L------|-------------------*||
E|--------------------------|--------------------||



                                               3x
G|----------------------|----------------------||
D|*--0------------------|---------------------*||
A|*---------1--------L--|---------3--------L--*||
E|----------------------|--1-------------------||


G|---------------------|-----------------------------||
D|---------------------|-----------------------------||
A|--1--------1--1------|--3-3-3-3-3-3-3-3-3----------||
E|---------------------|-----------------------------||



G|---------------------|---------------------|---------------------|
D|---------------------|---------------------|---------------------|
A|--0--------1--1------|--3--------3--3------|--0--------1--1------|
E|---------------------|---------------------|---------------------|


G|-----------------------|---------------------|---------------------|
D|-----------------------|---------------------|---------------------|
A|--3--------3--3----L-3-|--0--------1--1------|--3--------3--3------|
E|-----------------------|---------------------|---------------------|


  W                  
G|-------------------||
D|-------------------||
A|--1----------------||
E|-------------------||



G|---------------------|---------------------|---------------------|
D|---------------------|---------------------|---------------------|
A|--0--------1--1------|--3--------3--3------|--0--------1--1------|
E|---------------------|---------------------|---------------------|


G|-----------------------|-----------------------|-------------------|
D|-----------------------|-----------------------|-------------------|
A|--3--------3--3----L-3-|--0------L-0-1--1------|--3----------------|
E|-----------------------|-----------------------|-------------------|


G|-------------------||
D|-------------------||
A|--L----------------||
E|-------------------||



Guitar Solo

G|-----------------------------|-----------------------||
D|*----------------------------|----------------------*||
A|*--1-----------L-1-1--1------|--3--3------3--3------*||
E|-----------------------------|-----------------------||


G|-----------------------|-----------------------------||
D|--0------L-0-0--0------|-----------------------------||
A|-----------------------|--3-3-3-3-3-3-3-3-3----------||
E|-----------------------|-----------------------------||



Chorus 3 and Final

G|-------------------------|---------------------|-----------------------|
D|-------------------------|---------------------|-----------------------|
A|--0--------L-0-1--1------|--3--------3--3------|--0------L-0-1--1------|
E|-------------------------|---------------------|-----------------------|


G|-----------------------|-----------------------|-----------------------|
D|-----------------------|-----------------------|-----------------------|
A|--3------L-3-3--3------|--0------L-0-1--1------|--3------L-3-3--3------|
E|-----------------------|-----------------------|-----------------------|


                                                    Until de end   
G|-------------------------------------------------||
D|-------------------------------------------------||
A|--5-----5-5-5-5-5-5-5-5-5-5-5-5-5-5-5------------||
E|-------------------------------------------------||



Leave your comments about this lesson