Iron Maiden

Speed Of Light

Speed Of Light by Iron Maiden Bass Tab and Video Lesson

161 BPM 161 BPM

Level: Intermediate

Genre:Heavy Metal

Instrument:4 String Bass

NOTES

Let's learn and play "Speed Of Light" by Iron Maiden in Bass Guitar

G|---------------------|--------------------------|--------------------------|
D|-------------------5-|--L--3--------------------|--------------------------|
A|---------------------|--------5--4--3-----------|--3--4--3--1--3--1--------|
E|---------------------|-----------------6--3--6--|--------------------3--1--|


G|--------------------------|-------------------|-------------------|
D|--------------------------|-------------------|-------------------|
A|--3--4--3--1--3--1--------|-------------------|-------------------|
E|--------------------3--1--|--L----------------|--L----------------|


G|-------------------|-------------------|-------------------|
D|-------------------|-------------------|-------------------|
A|-------------------|-------------------|-------------------|
E|-------------------|-------------------|-------------------|


G|-------------------12-|---L----------------|---L--------10g12--10----------|
D|----------------------|--------------------|-----------------------12------|
A|----------------------|--------------------|---------------------------10--|
E|----------------------|--------------------|-------------------------------|


G|--------------------|-----------------------|--------------------------|
D|--------------------|-----------------------|--------------------------|
A|---L----------------|---L-------------L-----|--------------------------|
E|--------------------|--------------------3--|--L--3--3--3--3--3--3--3--|


G|--------------------------|--------------------------|
D|--------------------------|--------------------------|
A|--------------------------|--------------------------|
E|--3--3--3--3--3--3--3--3--|--L--3--3--3--3--3--3--3--|


G|--------------------------|--------------------------|
D|--------------------------|--------------------------|
A|--------------------------|--------------------------|
E|--3--3--3--3--3--3--3--3--|--L--3--3--3--3--3--3--3--|


G|--------------------------|--------------------------|
D|--------------------------|--------------------------|
A|--------------------------|--------------------------|
E|--3--3--3--3--3--3--3--3--|--L--3--3--3--3--3--3--3--|


G|--------------------------||
D|--------------------------||
A|--------------------------||
E|--3--3--3--3--3--3--3--0--||



Intro (slow)

G|---------------------|--------------------------|--------------------------|
D|-------------------5-|--L--3--------------------|--------------------------|
A|---------------------|--------5--4--3-----------|--3--4--3--1--3--1--------|
E|---------------------|-----------------6--3--6--|--------------------3--1--|


G|--------------------------|-------------------|-------------------|
D|--------------------------|-------------------|-------------------|
A|--3--4--3--1--3--1--------|-------------------|-------------------|
E|--------------------3--1--|--L----------------|--L----------------|


G|-------------------|-------------------|-------------------|
D|-------------------|-------------------|-------------------|
A|-------------------|-------------------|-------------------|
E|-------------------|-------------------|-------------------|


G|-------------------12-|---L----------------|---L--------10g12--10----------|
D|----------------------|--------------------|-----------------------12------|
A|----------------------|--------------------|---------------------------10--|
E|----------------------|--------------------|-------------------------------|


G|--------------------|-----------------------|--------------------------|
D|--------------------|-----------------------|--------------------------|
A|---L----------------|---L-------------L-----|--------------------------|
E|--------------------|--------------------3--|--L--3--3--3--3--3--3--3--|


G|--------------------------|--------------------------|
D|--------------------------|--------------------------|
A|--------------------------|--------------------------|
E|--3--3--3--3--3--3--3--3--|--L--3--3--3--3--3--3--3--|


G|--------------------------|--------------------------|
D|--------------------------|--------------------------|
A|--------------------------|--------------------------|
E|--3--3--3--3--3--3--3--3--|--L--3--3--3--3--3--3--3--|


G|--------------------------|--------------------------|
D|--------------------------|--------------------------|
A|--------------------------|--------------------------|
E|--3--3--3--3--3--3--3--3--|--L--3--3--3--3--3--3--3--|


G|--------------------------||
D|--------------------------||
A|--------------------------||
E|--3--3--3--3--3--3--3--0--||



G|---------------------|--------------------------|--------------------------|
D|---------------------|--------------------------|--------------------------|
A|---------------------|--------------------------|--------------------------|
E|------------------0--|--L--0--0--0--0--0--0--0--|--L--0--0--0--0--0--0--0--|


G|--------------------------|--------------------------|
D|--------------------------|--------------------------|
A|--------------------------|--------------------------|
E|--L--0--0--0--0--0--0--1--|--L--1--1--1--L--1--1--3--|


G|--------------------------|--------------------------|
D|--------------------------|--------------------------|
A|--------------------------|--------------------------|
E|--L--3--3--3--3--3--3--3--|--L--3--3--3--3--3--3--3--|


G|--------------------------|--------------------------|
D|--------------------------|--------------------------|
A|--------------------------|--------------------------|
E|--L--3--3--3--3--3--3--3--|--L--3--3--3--3--3--3--0--|


G|--------------------------|--------------------------|
D|--------------------------|--------------------------|
A|--------------------------|--------------------------|
E|--L--0--0--0--0--0--0--0--|--L--0--0--0--0--0--0--0--|


G|--------------------------|--------------------------|
D|--------------------------|--------------------------|
A|--------------------------|--------------------------|
E|--L--0--0--0--0--0--0--1--|--L--1--1--1--L--1--1--3--|


G|--------------------------|--------------------------|
D|--------------------------|--------------------------|
A|--------------------------|--------------------------|
E|--L--3--3--3--3--3--3--3--|--L--3--3--3--3--3--3--3--|


G|--------------------------|--------------------------|
D|--------------------------|--------------------------|
A|--------------------------|-----------------------3--|
E|--L--3--3--3--3--3--3--3--|--L--3--3--3--3--3--3-----|


G|--------------------------|--------------------------|
D|--------------------------|--------------------------|
A|--L--3--3--3--3--3--3--3--|--3--3--3-----1-----1--3--|
E|--------------------------|-----------3-----3--------|


G|--------------------------|--------------------------|
D|--------------------------|--------------------------|
A|--L--3--3--3--3--3--3--3--|--3--3--3--3--3--1--1--3--|
E|--------------------------|--------------------------|


G|--------------------------|--------------------------|
D|--------------------------|--------------------------|
A|--L--3--3--3--3--3--3--3--|--3--3--3-----1-----1--3--|
--------------------------|-----------3-----3--------|


G|--------------------------|--------------------------|
D|--------------------------|--------------------------|
A|--L--3--3--3--3--3--3--3--|--3--3--3--3--3--1--1--5--|
E|--------------------------|--------------------------|


G|--------------------------|--------------------------|
D|--------------------------|--------------------------|
A|--L--5--5--5--5--5--5--5--|--5--5--5-----3-----3--5--|
E|--------------------------|-----------5-----5--------|


G|--------------------------|--------------------------|
D|--------------------------|--------------------------|
A|--5--5--5--5--5--5--5--5--|--5--5--5--5--5--3--3--5--|
E|--------------------------|--------------------------|


G|--------------------------|--------------------------|
D|--------------------------|--------------------------|
A|--L--5--5--5--5--5--5--5--|--5--5--5-----3-----3--5--|
E|--------------------------|-----------5-----5--------|


G|--------------------------|--------------------------||
D|--------------------------|--------------------------||
A|--L--5--5--5--5--5--5--5--|--5--5--5--5--5--5--5-----||
E|--------------------------|-----------------------3--||



G|-------------------------|--------------------------|
D|-------------------------|--------------------------|
A|-------------------------|--------------------------|
E|----------------------3--|--L--3--3--3--3--3--3--3--|


G|--------------------------|--------------------------|
D|--------------------------|--------------------------|
A|--------------------------|--------------------------|
E|--3--3--3--3--3--3--3--3--|--L--3--3--3--3--3--3--3--|


G|--------------------------|--------------------------|
D|--------------------------|--------------------------|
A|--------------------------|--------------------------|
E|--3--3--3--3--3--3--3--3--|--L--3--3--3--3--3--3--3--|


G|--------------------------|--------------------------|
D|--------------------------|--------------------------|
A|-----------------------3--|--L--3--3--3--3--3--3--3--|
E|--3--3--3--3--3--3--3-----|--------------------------|


G|--------------------------|--------------------------|
D|--------------------------|--------------------------|
A|--3--3--3--3--3--3--3-----|--------------------------|
E|-----------------------3--|--L--3--3--3--3--3--3--3--|


G|--------------------------|--------------------------|
D|--------------------------|--------------------------|
A|--------------------------|--------------------------|
E|--3--3--3--3--3--3--3--3--|--L--3--3--3--3--3--3--3--|


G|--------------------------|--------------------------|
D|--------------------------|--------------------------|
A|--------------------------|--------------------------|
E|--3--3--3--3--3--3--3--3--|--L--3--3--3--3--3--3--3--|


G|--------------------------|--------------------------|
D|--------------------------|--------------------------|
A|-----------------------3--|--L--3--3--3--3--3--3--3--|
E|--3--3--3--3--3--3--3-----|--------------------------|


G|--------------------------|--------------------------|
D|--------------------------|--------------------------|
A|--3--3--3--3--3-----------|--------------------------|
E|-----------------1--1--3--|--L--3--3--3--3--3--3--3--|


G|--------------------------|--------------------------|
D|--------------------------|--------------------------|
A|--------------------------|--------------------------|
E|--L--3--3--3--3--3--3--3--|--L--3--3--3--3--3--3--3--|


G|--------------------------|--------------------------|
D|--------------------------|--------------------------|
A|--------------------------|--------------------------|
E|--L--3--3--3--3--3--3--3--|--L--3--3--3--3--3--3--3--|


G|--------------------------|--------------------------|
D|--------------------------|--------------------------|
A|--------------------------|--------------------------|
E|--L--3--3--3--3--3--3--3--|--L--3--3--3--3--3--3--3--|


G|--------------------------||
D|--------------------------||
A|--------------------------||
E|--L--3--3--3--3--3--3--0--||



Guitar Solo

G|------------------------------||---------------------------|
D|------------------------------||*--------------------------|
A|------------------------------||*--------------------------|
E|---------------------------5--||---L--5--5--5--5--5--5--5--|


G|--------------------------|--------------------------|
D|--------------------------|--------------------------|
A|--------------------------|--------------------------|
E|--5--5--5--5--5--5--5--3--|--L--3--3--3--3--3--3--3--|


G|--------------------------|--------------------------|
D|--------------------------|--------------------------|
A|--------------------------|--------------------------|
E|--3--3--3--3--3--3--3--5--|--L--5--5--5--5--5--5--5--|


G|--------------------------|--------------------------|
D|--------------------------|--------------------------|
A|-----------------------5--|--L--5--5--5--5--5--5-----|
E|--5--5--5--5--5--5--5-----|-----------------------3--|


G|---------------------------||--------------------------|
D|--------------------------*||--------------------------|
A|--------------------------*||--------------------------|
E|--L--3--3--3--3--3--3--5---||--L--3--3--3--3--3--3--7--|


G||---------------------------|--------------------------|
D||*--------------------------|--------------------------|
A||*--------------------------|--------------------------|
E||---L--7--7--7--7--7--7--7--|--7--7--7--7--7--7--7--5--|


G|--------------------------|--------------------------|
D|--------------------------|--------------------------|
A|--------------------------|--------------------------|
E|--L--5--5--5--5--5--5--5--|--5--5--5--5--5--5--5--7--|


G|--------------------------|--------------------------|
D|--------------------------|--------------------------|
A|--------------------------|-----------------------7--|
E|--L--7--7--7--7--7--7--7--|--7--7--7--7--7--7--7-----|


G|--------------------------|---------------------------||
D|--------------------------|--------------------------*||
A|--L--7--7--7--7--7--7-----|--------------------------*||
E|-----------------------5--|--L--5--5--5--5--5--5--5---||


G|--------------------------|--------------------------|
D|--------------------------|--------------------------|
A|-----------------------3--|--L--3--3--3--3--3--3--3--|
E|--L--5--5--5--5--5--5-----|--------------------------|


G|--------------------------|--------------------------|
D|--------------------------|--------------------------|
A|--3--3--3-----1-----1--3--|--L--3--3--3--3--3--3--3--|
E|-----------3-----3--------|--------------------------|


G|--------------------------|--------------------------|
D|--------------------------|--------------------------|
A|--3--3--3--3--3--1--1--3--|--L--3--3--3--3--3--3--3--|
E|--------------------------|--------------------------|


G|--------------------------|--------------------------|
D|--------------------------|--------------------------|
A|--3--3--3-----1-----1--3--|--L--3--3--3--3--3--3--3--|
E|-----------3-----3--------|--------------------------|


G|--------------------------|--------------------------|
D|--------------------------|--------------------------|
A|--3--3--3--3--3--1--1--5--|--L--5--5--5--5--5--5--5--|
E|--------------------------|--------------------------|


G|--------------------------|--------------------------|
D|--------------------------|--------------------------|
A|--5--5--5-----3-----3--5--|--5--5--5--5--5--5--5--5--|
E|-----------5-----5--------|--------------------------|


G|--------------------------|--------------------------|
D|--------------------------|--------------------------|
A|--5--5--5--5--5--3--3--5--|--L--5--5--5--5--5--5--5--|
E|--------------------------|--------------------------|


G|--------------------------|--------------------------|
D|--------------------------|--------------------------|
A|--5--5--5-----3-----3--5--|--L--5--5--5--5--5--5--5--|
E|-----------5-----5--------|--------------------------|


G|--------------------------||
D|--------------------------||
A|--5--5--5--5--5--5--5-----||
E|-----------------------3--||



G|---------------------|--------------------------|--------------------------|
D|-------------------5-|--L--3--------------------|--------------------------|
A|---------------------|--------5--4--3-----------|--3--4--3--1--3--1--------|
E|---------------------|-----------------6--3--6--|--------------------3--1--|


G|--------------------------|-------------------|-------------------||
D|--------------------------|-------------------|-------------------||
A|--3--4--3--1--3--1--------|-------------------|-------------------||
E|--------------------3--1--|--L----------------|--L----------------||



Leave your comments about this lesson