Kings of Leon

Use Somebody

Use Somebody by Kings of Leon Bass Tab and Video Lesson

108 BPM 108 BPM

Level: Easy

Genre:Rock

Instrument:4 String Bass

NOTES

Learn to play Use Somebody by Kings of Leon in Bass Guitar with Bass Tabs and Video Lessons.

G|-----------------------------|--------------------------|
D|-----------------------------|--------------------------|
A|--3-----3--3--3--3--3--3--3--|--------------------------|
E|-----------------------------|--0--0--0--0--0--0--0--0--|


G|--------------------------|---------------------------||
D|--------------------------|--------------------------*||
A|--------------------------|--------------------------*||
E|--1--1--1--1--1--1--1--1--|--1--1--1--1--1--1--1--1---||


G|---------------------------|--------------------------|
D|*--------------------------|--------------------------|
A|*--------------------------|--3--3--3--3--3--3--3--3--|
E|---5--5--5--5--5--5--5--5--|--------------------------|


G|--------------------------|---------------------------||---------------------||
D|--------------------------|--------------------------*||---------------------||
A|--------------------------|--------------------------*||---------------------||
E|--1--1--1--1--1--1--1--1--|--1--1--1--1--1--1--1--1---||--13\----------------||



G|-------------------------------|--------------------------|
D|-------------------------------|--------------------------|
A|--3-------3--3--3--3--3--3--3--|--------------------------|
E|-------------------------------|--0--0--0--0--0--0--0--0--|


G|--------------------------|---------------------------||
D|--------------------------|--------------------------*||
A|--------------------------|--------------------------*||
E|--1--1--1--1--1--1--1--1--|--1--1--1--1--1--1--1--1---||


G|---------------------------|--------------------------|
D|*--------------------------|--------------------------|
A|*--------------------------|--3--3--3--3--3--3--3--3--|
E|---5--5--5--5--5--5--5--5--|--------------------------|


G|--------------------------|---------------------------||
D|--------------------------|--------------------------*||
A|--------------------------|--------------------------*||
E|--1--1--1--1--1--1--1--1--|--1--1--1--1--1--1--1--1---||



G|-------------------------5-----|---------------------------|
D|----------------------5--------|---------------------------|
A|--3-------3--3--3--3-----------|---------------------------|
E|-------------------------------|-----0-0-0--0--0--0--0--0--|


G|--------------------------|-----------------------------||
D|--------------------------|----------------------------*||
A|--------------------------|----------------------------*||
E|--1--1--1--1--1--0--1--1--|-----1-----1-----1-1----1-1--||


G|-------------------------||---------------------------|
D|-------------------------||*--------------------------|
A|-------------------------||*--------------------------|
E|-----1--1--1--L--1--1----||---5--5--5--5--5--5--5--5--|


G|--------------------------|--------------------------|
D|--------------------------|--------------------------|
A|--3--3--3--3--3--3--3--3--|--------------------------|
E|--------------------------|--1--1--1--1--1--1--1--1--|


G|---------------------------||----------------------------||
D|--------------------------*||----------------------------||
A|--------------------------*||----------------------------||
E|--1--1--1--1--1--1--1--1---||--1--1--1--1--13\----13\----||



Guitar Solo

G|-----------------------------------|--------------------------|
D|-----------------------------------|--------------------------|
A|--5-----------5--5--5--5--5--5--5--|--5--5--5--5--5--5--5--5--|
E|-----------------------------------|--------------------------|


G|--------------------------|---------------------------||--------------------|
D|--------------------------|--------------------------*||--------------------|
A|--------------------------|--------------------------*||--------------------|
E|--2--2--2--2--2--2--2--2--|--2--2--2--2--2--2--2--2---||--7\----------------|


G|--------------------------|--------------------------|
D|--------------------------|--------------------------|
A|--3--3--3--3--3--3--3--3--|--------------------------|
E|--------------------------|--0--0--0--0--0--0--0--0--|


G|--------------------------|--------------------------|
D|--------------------------|--------------------------|
A|--------------------------|--------------------------|
E|--1--1--1--1--1--1--1--1--|--1--1--1--1--1--1--1--1--|


G|---------------------------|--------------------------|
D|*--------------------------|--------------------------|
A|*--------------------------|--3--3--3--3--3--3--3--3--|
E|---5--5--5--5--5--5--5--5--|--------------------------|


    						        3x
G|--------------------------|---------------------------||
D|--------------------------|--------------------------*||
A|--------------------------|--------------------------*||
E|--1--1--1--1--1--1--1--1--|--1--1--1--1--1--1--1--1---||


G|--------------------------|--------------------------|---------------------||
D|--------------------------|--------------------------|---------------------||
A|--------------------------|--3--3--3--3--3--3--3--3--|---------------------||
E|--5--5--5--5--5--5--5--5--|--------------------------|--13\----------------||



Leave your comments about this lesson