Lady Antebellum

Just a Kiss

Just a Kiss by Lady Antebellum Bass Tab and Video Lesson

Level: Easy

Genre:Country

Instrument:4 String Bass

NOTES

How to play Just a Kiss by Lady Antebellum in Bass Guitar.

Intro and Verse

G|--3------------3-5-6--|-------------------|--3------------3-5-6--|
D|----------------------|--4----------------|----------------------|
A|----------------------|-------------------|----------------------|
E|----------------------|-------------------|----------------------|

G|-------------------|--3------------3-5-6--|-------------------|
D|--4----------------|----------------------|--4----------------|
A|-------------------|----------------------|-------------------|
E|-------------------|----------------------|-------------------|

G|--3------------3-5-6--|-------------------|-------------------|
D|----------------------|--4----------------|-------------------|
A|----------------------|-------------------|--6----------------|
E|----------------------|-------------------|-------------------|

G|-------------------|--3----------------|-------------------|--3----------------|
D|--6----------------|-------------------|--4----------------|-------------------|
A|-------------------|-------------------|-------------------|-------------------|
E|-------------------|-------------------|-------------------|-------------------|

G|-------------------|--8----------------|--------------------|
D|--4----------------|-------------------|--6--------6--------|
A|-------------------|-------------------|--------------------|
E|-------------------|-------------------|--------------------|



G|----------------------|----------------------|----------------------|
D|----------------------|----------------------|----------------------|
A|--1--------1----------|--4--------4-3--------|--1--------1----------|
E|-------------2--------|----------------------|-------------2--------|

G|----------------------|----------------------|----------------------|
D|----------------------|----------------------|----------------------|
A|----------------------|--1--------1----------|--4--------4-3--------|
E|--4--------4-4--------|-------------2--------|----------------------|

G|----------------------------|---------------------|------------------------|
D|----------------------------|---------------------|---------------8-10-11--|
A|--6----------6-4------------|---------------------|------------------------|
E|-----------6-----6-4-2-2-1--|--2--------4s--------|--6---------------------|

G|----------------------|
D|--4-------------------|
A|----------------------|
E|-------------2---2----|



G|----------------------|-------------------|----------------------|
D|----------------------|-------------------|----------------------|
A|--1------------1-3-4--|-------------------|--1------------1-3-4--|
E|----------------------|--2----------------|----------------------|

G|-----------------------|----------------------|-------------------------------|
D|-----------------------|----------------------|-----------6-8-6g8--6--8-6-----|
A|---------------------4-|--6-------------------|---------6-----------------8-6-|
E|--2--------------4-6---|------------------6-5-|--4----------------------------|

G|----------------------|----------------------|----------------------|
D|----------------------|----------------------|----------------------|
A|--1--------1----------|--4--------4-3--------|--1--------1----------|
E|-------------2--------|----------------------|-------------2--------|

G|-------------------------------|----------------------|----------------------|
D|-----------6-8-6g8--6----------|----------------------|----------------------|
A|---------6-------------6-4-----|--1--------1----------|--4--------4-3--------|
E|--4------------------------6-4-|-------------2--------|----------------------|

G|----------------------------|--------------------|
D|----------------------------|--------------------|
A|--6----------6-4------------|--------------------|
E|-----------6-----6-4-2-2-1--|--2--------4--------|



G|---------------------------------|----------------------------------|
D|---------------------------------|----------------------------------|
A|--6-6-4-6-L-6-6-6-4-6-6-6---6--6-|--------------------------4-4-5-5-|
E|---------------------------------|--6-6-4-6-L-6-6-6-4-4-4-4---------|

G|----------------------------------|----------------------------------|
D|----------------------------------|----------------------------------|
A|--6-6-4-6-L-6-6-6-4-6-6-6-6-4-----|--8-8-6-8-L--8-6-8-9-8-6-9-11-11--|
E|------------------------------6-4-|----------------------------------|

G|----------------------------------|----------------------|
D|----------------------------------|----------------------|
A|--9--9-9----9-9----9-9-11s-13-13--|--11--------11--------|
E|----------------------------------|----------------------|

G|------------------------|-------------------|-------------------|
D|--8------------8-10-11--|-------------------|--8----------------|
A|------------------------|--9----------------|-------------------|
E|------------------------|-------------------|-------------------|



G|----------------------|----------------------|----------------------|
D|----------------------|----------------------|----------------------|
A|--1--------1----------|--4--------4-3--------|--1--------1----------|
E|-------------2--------|----------------------|-------------2--------|

G|-------------------------------|----------------------|----------------------|
D|-----------6-8-6g8--6----------|----------------------|----------------------|
A|---------6-------------6-4-----|--1--------1----------|--4--------4-3--------|
E|--4------------------------6-4-|-------------2--------|----------------------|

G|-----------------------------|----------------------------|
D|-----------------------------|----------------------------|
A|--6-6-4-6-L-----6-4----------|---------------3-3-4-4-6h-8-|
E|--------------6-----6-4-1----|--2----------2--------------|

G|-----------------------------|----------------------|----------------------|
D|-----------------------------|----------------------|----------------------|
A|--6-6-4-6-L-----6-4----------|----------------------|--1------------1-3-4--|
E|--------------6-----6-4-1----|--2s----6----4--------|----------------------|

G|-------------------|-------------------|-------------------|-----------|
D|-------------------|-------------------|-------------------|-----------|
A|-------------------|--1----------------|-------------------|-----------|
E|--2----------------|-------------------|--2----------------|-----------|



Leave your comments about this lesson