Lynyrd Skynyrd

Sweet Home Alabama

Sweet Home Alabama by Lynyrd Skynyrd Bass Tab and Video Lesson

Level: Intermediate

Genre:Hard Rock

Instrument:4 String Bass

NOTES

How to play Sweet Home Alabama by Lynyrd Skynyrd in Bass Guitar.

G|-------------------------|-------------------------|
D|-------------------------|-------------------------|
A|--5--5------x-3--3-------|-------------------------|
E|-------------------------|--3--3------x-3--3-------|

G|-------------------------|----------------------------|
D|-------------------------|----------------------------|
A|--5--5------x-3--3-------|----------------------------|
E|-------------------------|--3--3------x-3--3-----5h-7-|



G|--------------------------|----------------------------|
D|--------------------------|----------------------------|
A|--5--5--L---x-3--3--L---x-|----------------------------|
E|--------------------------|--3--3--L---x-3--3-----5h-7-|



                 |--3--|                                        
G|-----------------------5--5-------|--------------------------|
D|---------------2h-3h-4-------5p-3-|--------5-----------5-----|
A|--5--5--0-2--0--------------------|------------5-----------0-|
E|----------------------------------|--3--3--------3--3--------|

                 |--3--|                                         
G|-----------------------5--5-------|--------------------------|
D|---------------2h-3h-4-------5p-3-|--------5-----------5-----|
A|--5--5--0-2--0--------------------|------------5----------0--|
E|----------------------------------|--3--3--------3--3--------|



Phrase Pre Chorus

G|--------------------------------|
D|---------5----------------------|
A|-------5---7-5------5-----------|
E|--5h-7---------5h-7-------------|



G|--------------------------|--------------------------|
D|--------------------------|--------------------------|
A|--5--5--L---x-3--3--L---x-|----------------------3---|
E|--------------------------|--3--3-----3-----3--------|

G|--------------------------|--------------------------|
D|--------------------------|--------------------------|
A|--5--5--L---x-3--3--L---x-|-----------------3-----3--|
E|--------------------------|--3--3-----3--------------|

G|--------------------------|--------------------------|
D|--------------------------|--------------------------|
A|--5--5--L---x-3--3--L---x-|----------------------3---|
E|--------------------------|--3--3-----3-----3--------|

G|--------------------------|------------------------|
D|--------------------------|--------------3----2----|
A|--5--5--L---x-3--3--L---x-|------------------------|
E|--------------------------|--3--3-----3------------|



G|------------------------|
D|--------------3---------|
A|-------------------3----|
E|--3--3-----3------------|



Guitar Solo 1

G|--------------------------|----------------------------|
D|--------------------------|----------------------------|
A|--5--5--5---x-3--3--3---x-|----------------------------|
E|--------------------------|--3--3--L---x-3--3--L--5h-7-|



G|----------------------------|
D|------------------5-3-5-3---|
A|----------------5-----------|
E|--3--3-----3----------------|



Guitar Solo 2

G|------------------------------|---------------------------|
D|------------------------------|--------2--2--3--3--2------|
A|--5--5--0h-2--2-3--3----------|----------------------5--0-|
E|----------------------0-1-2-2-|--3--3---------------------|



Piano Solo

                                                             3x
G|------------------------------|----------------------------|
D|------------------------------|--------2--2--3--3--2------*|
A|--5--5--0h-2--2-3--3----------|----------------------5----*|
E|----------------------0-1-2-2-|--3--3-------------------5--|

G|-------------------------------|------------------------------|
D|*------------------------------|--------2--2-------0-2-0-----*|
A|*--5--5--0h-2--2-3--3----------|--------------0h-2-------3---*|
E|-----------------------0-1-2-2-|--3--3------------------------|



Leave your comments about this lesson