Maroon 5

Moves Like Jagger

Moves Like Jagger by Maroon 5 Bass Tab and Video Lesson

132 BPM 132 BPM

Level: Intermediate

Genre:Pop Music

Instrument:4 String Bass

NOTES

How to play Moves Like Jagger by Maroon 5 in Bass Guitar.

G|---------------------|-------------------|---------------------|
D|---------------------|-------------------|---------------------|
A|---------------------|-------------------|---------------------|
E|--7------------------|-------------------|--7------------------|

G|-------------------|---------------------|-------------------|
D|-------------------|---------------------|-------------------|
A|-------------------|--7------------------|-------------------|
E|-------------------|---------------------|-------------------|

G|---------------------|-------------------|---------------------|
D|---------------------|-------------------|---------------------|
A|--7------------------|-------------------|---------------------|
E|---------------------|-------------------|--7------------------|

G|-------------------|---------------------|-------------------|
D|-------------------|---------------------|-------------------|
A|-------------------|---------------------|-------------------|
E|-------------------|--7------------------|-------------------|

G|---------------------|-------------------|-------------------|
D|---------------------|-------------------|-------------------|
A|--7------------------|-------------------|-------------------|
E|---------------------|-------------------|-------------------|

G|---------------------|
D|---------------------|
A|--7------------------|
E|---------------------|



G|---------------------|----------------------|-----------------------|
D|---------------------|----------------------|-----------------------|
A|---------------------|--2----2----2----2----|--2----2----2----2-----|
E|------------------2--|----------------------|--------------------2--|

G|----------------------|-----------------------|----------------------|
D|----------------------|-----------------------|----------------------|
A|--2----2----2----2----|--2----2----2----2--5--|--7----7----7----7----|
E|----------------------|-----------------------|----------------------|

G|----------------------|----------------------|------------------------|
D|----------------------|----------------------|------------------------|
A|--7----7----7----7----|--7----7----7----7----|--7----7-------5-----5--|
E|----------------------|----------------------|------------7-----7-----|

G|---------------------|
D|---------------------|
A|---------------------|
E|--7------------------|



G|----------------------|------------------------|----------------------|
D|----------------------|------------------------|----------------------|
A|----------------------|---------------------5--|----------------------|
E|--7----7----7----7----|--7----7----7--5--7-----|--7----7----7----7----|

G|-------------------------|------------------------|------------------------|
D|-------------------------|------------------------|------------------------|
A|----------------------5--|--7\---------7----7--5--|--7\---------7----7--5--|
E|--7----7---x-7--5--7-----|--------0---------------|--------0---------------|

G|------------------------|--------------------------|----------------------|
D|------------------------|--------------------------|----------------------|
A|--7\---------7----7--5--|--7\-------------5--------|----------------------|
E|--------0---------------|--------0--5--7-----7--5--|--7----7----7----7----|

G|------------------------|----------------------|-------------------------|
D|------------------------|----------------------|-------------------------|
A|---------------------5--|----------------------|----------------------5--|
E|--7----7----7--5--7-----|--7----7----7----7----|--7----7---x-7--5--7-----|

G|------------------------|------------------------|--------------------------|
D|------------------------|------------------------|-----------9--7-----------|
A|--7\---------7----7--5--|--7\---------7----7--5--|-----5--7--------9--7--5--|
E|--------0---------------|--------0---------------|--7-----------------------|

G|----------------------|---------------------|
D|----------------------|---------------------|
A|--7----7----7----7----|---------------------|
E|----------------------|--7------------------|



G|----------------------|------------------------|-----------------------|
D|----------------------|------------------------|--9----9----9----9-----|
A|----------------------|-----------------2--7-9-|--------------------9--|
E|--7----7----7----7----|--7----7----7-----------|-----------------------|

G|------------------------|-----------------------|----------------------|
D|--9----9----9--7--------|-----------------------|----------------------|
A|------------------9--5--|--7----7----7----7\----|----------------------|
E|------------------------|-----------------------|--0----0----0----0----|

G|-----------------------|---------------------|----------------------|
D|-----------------------|---------------------|----------------------|
A|--7----7----7----7-----|--7\-----------------|----------------------|
E|---------------------7-|---------------------|--7----7----7----7----|

G|------------------------|----------------------|------------------------|
D|------------------------|----------------------|------------------------|
A|------------------------|----------------------|---------------------5--|
E|--7----7----7---x-7--5--|--7----7----7----7----|--7----7----7---x-7-----|

G|-------------------------|------------------------|----------------------|
D|-------------------------|------------------------|----------------------|
A|--7-----7----7-----7-----|--7-----7----7-----7----|--7----7----7----7----|
E|-----0----------0------x-|-----0----------0-------|----------------------|

G|--------------------------|---------------------|
D|--------------------------|---------------------|
A|-----7-----7-----7-----5--|---------------------|
E|--0-----0-----0-----0-----|--7------------------|



G|-------------------|---------------------|-------------------|
D|-------------------|---------------------|--9----------------|
A|-------------------|------------------9--|-------------------|
E|--7----------------|--7------------------|-------------------|

G|--------------------------|-------------------|------------------9-9-|
D|--9--7--------9--7--------|-------------------|----------------------|
A|--------9\----------9--5--|--7----------------|----------------------|
E|--------------------------|-------------------|--0-------------------|

G|--9----------------|--9------7g9--7-----------|----------------------|
D|-------------------|-----------------9--7-----|--9-------------------|
A|-------------------|-----------------------9--|----------------------|
E|-------------------|--------------------------|-------7----7----7----|

G|------------------------|----------------------|------------------------|
D|------------------------|----------------------|------------------------|
A|---------------------5--|----------------------|---------------------5--|
E|--7----7----7--5--7-----|--7----7----7----7----|--7----7----7--5--7-----|

G|------------------------|------------------------|------------------------|
D|------------------------|------------------------|------------------------|
A|--7----7----7---x-7--5--|--7----7----7---x-7--5--|--7----7----7---x-7--5--|
E|------------------------|------------------------|------------------------|

G|--------------------------|----------------------|
D|--------------------------|----------------------|
A|--7--7--7--7--7--7--7--7--|--7\------------------|
E|--------------------------|----------------------|



Final Chorus

G|-----------------------|-------------------------|----------------------|
D|*----------------------|-------------------------|----------------------|
A|*----------------------|----------------------5--|----------------------|
E|---7----7----7----7----|--7----7---x-7--5--7-----|--7----7----7----7----|

G|-------------------------|------------------------|------------------------|
D|-------------------------|------------------------|------------------------|
A|----------------------5--|--7\---------7----7--5--|--7\---------7----7--5--|
E|--7----7---x-7--5--7-----|--------0---------------|--------0---------------|

G|------------------------|--------------------------|----------------------|
D|------------------------|--------------------------|----------------------|
A|--7\---------7----7--5--|--7\-------------5--------|----------------------|
E|--------0---------------|--------0--5--7-----7--5--|--7----7----7----7----|

G|-------------------------|----------------------|-----------------------|
D|-------------------------|----------------------|-----------------------|
A|----------------------5--|----------------------|------------------9----|
E|--7----7---x-7--5--7-----|--7----7----7----7----|--7----9----10---------|

G|------------------------|-----------------------|--------------------------|
D|------------------------|-----------------------|-----------9--7-----------|
A|--7\---------7----7--5--|--7\---------7----7----|-----5--7--------9--7--5--|
E|--------0---------------|--------0--------------|--7-----------------------|

G|-----------------------||--------------------------|---------------------|
D|----------------------*||-----------9--7-----------|---------------------|
A|--7----7----7----7----*||-----5--7--------9--7--5--|--7------------------|
E|-----------------------||--7-----------------------|---------------------|



Leave your comments about this lesson