Maroon 5

This Love

This Love by Maroon 5 Bass Tab and Video Lesson

90 BPM 90 BPM

Level: Easy

Genre:Pop Music

Instrument:5 String Bass

NOTES

How to play This Love by Maroon 5e in Bass Guitar.

G|-----------------------|------------------------|------------------------|
D|-----------------------|------------------------|------------------------|
A|-------------------1---|--2------------2----5---|--3---------------------|
E|--------------4--------|------------------------|---------------3----2---|
B|-----------------------|------------------------|------------------------|

G|------------------------|------------------------|------------------------|
D|------------------------|------------------------|------------------------|
A|------------------------|--------------------1---|--2------------2----5---|
E|--1------------1--------|---------------4--------|------------------------|
B|--------------------4---|--3---------------------|------------------------|



G|------------------------|------------------------|------------------------|
D|------------------------|---------------5----4---|--3------------3--------|
A|--2------------2----5---|--3---------------------|--------------------6---|
E|------------------------|------------------------|------------------------|
B|------------------------|------------------------|------------------------|

G|------------------------|------------------------|------------------------|
D|------------------------|------------------------|---------------5----4---|
A|--5-----------------1---|--2------------2----5---|--3---------------------|
E|---------------4--------|------------------------|------------------------|
B|------------------------|------------------------|------------------------|

G|------------------------|---------------------|
D|--3------------3--------|---------------------|
A|--------------------6---|--5------------------|
E|------------------------|---------------------|
B|------------------------|---------------------|



G|-------------------------------|--------------------------|
D|---------------3-3-3-3-3-3-3---|-----------------1----1---|
A|--3--3----3--x-----------------|--1--1----1---------------|
E|-----------------------------1-|--------------------------|
B|-------------------------------|--------------------------|

G|-------------------------------|--------------------------|
D|---------------3-3-3-3-3-3-----|-----------------1----2---|
A|--3--3----3--x-------------3-2-|--1--1----1---------------|
E|-------------------------------|--------------------------|
B|-------------------------------|--------------------------|

G|-------------------------------|--------------------------|
D|---------------3-3-3-3-3-3-3---|-----------------1----1---|
A|--3--3----3--x-----------------|--1--1----1---------------|
E|-----------------------------1-|--------------------------|
B|-------------------------------|--------------------------|

G|-------------------------------|----------------------------|
D|-------------------------------|----------------------------|
A|--3--3----3--x-----------------|----------------------------|
E|---------------1-1-1-1-1-1-1-1-|--4--4----4--x-3--3----3--x-|
B|-------------------------------|----------------------------|

G|------------------------|------------------------|------------------------|
D|------------------------|------------------------|------------------------|
A|--2------------2----5---|--3---------------------|------------------------|
E|------------------------|---------------3----2---|--1------------1--------|
B|------------------------|------------------------|--------------------4---|

G|------------------------|---------------------|
D|------------------------|---------------------|
A|--------------------1---|--2------------------|
E|---------------4--------|---------------------|
B|--3---------------------|---------------------|



G|-------------------------|-------------------------|
D|-------------------------|-------------------------|
A|-------------------------|-------------------------|
E|--1--------x-1--1----1---|-------------------------|
B|-------------------------|--4--------x-4--4----4---|

G|-------------------------|-------------------------|-------------------------|
D|-------------------------|-------------------------|-------------------------|
A|-------------------------|-------------------------|-------------------------|
E|-------------------------|-------------------------|--1--------x-1--1----1---|
B|--0--------x-0--0----0---|--1--------x-1--1----4---|-------------------------|

G|-------------------------|-------------------------|--------------------------|
D|-------------------------|-------------------------|--------------------------|
A|-------------------------|-------------------------|--------------------------|
E|-------------------------|--3--------x-3--3----3---|--3--3--3--3--3--3--3--3--|
B|--4--------x-4--4----4---|-------------------------|--------------------------|

G|--------|-------|-------|
D|--------|-------|-------|
A|--3--3--|-------|-------|
E|--------|-------|-------|
B|--------|-------|-------|



Last Chorus

G|--------------------------------|--------------------------|
D|*---------------3-3-3-3-3-3-3---|-----------------1----1---|
A|---3--3----3--x-----------------|--1--1----1---------------|
E|*-----------------------------1-|--------------------------|
B|--------------------------------|--------------------------|

G|-------------------------------|--------------------------|
D|---------------3-3-3-3-3-3-----|-----------------1----2---|
A|--3--3----3--x-------------3-2-|--1--1----1---------------|
E|-------------------------------|--------------------------|
B|-------------------------------|--------------------------|

G|-------------------------------|--------------------------|
D|---------------3-3-3-3-3-3-3---|-----------------1----1---|
A|--3--3----3--x-----------------|--1--1----1---------------|
E|-----------------------------1-|--------------------------|
B|-------------------------------|--------------------------|

                                                               3x
G|-------------------------------|-----------------------------|
D|-------------------------------|----------------------------*|
A|--3--3----3--x-----------------|-----------------------------|
E|---------------1-1-1-1-1-1-1-1-|--4--4----4--x-3--3----3--x-*|
B|-------------------------------|-----------------------------|



Leave your comments about this lesson