Michael Jackson

Billie Jean

Billie Jean by Michael Jackson Bass Tab and Video Lesson

Level: Easy

Genre:R&B

Instrument:4 String Bass

NOTES

How to play Billie Jean by Michael Jackson in Bass Guitar.

G|--------------------------------------------|--------------------------|
D|--4-----------------------2--4--2-----------|--4-----2--4--2-----------|
A|-----------------------4-----------4--2--4--|-----4-----------4--2--4--|
E|--------------------------------------------|--------------------------|



G|--------------------------------------------|--------------------------|
D|--4-----------------------2--4--2-----------|--4-----2--4--2-----------|
A|-----------------------4-----------4--2--4--|-----4-----------4--2--4--|
E|--------------------------------------------|--------------------------|

G|--4-----2--4--------------|--4-----2--4---------------|
D|-----4-----------4--2--4--|-----4-----------4--2-----*|
A|--------------------------|-----------------------4--*|
E|--------------------------|---------------------------|

G|--------------------------|--------------------------|
D|--4-----2--4--2-----------|--4-----2--4--2-----------|
A|-----4-----------4--2--4--|-----4-----------4--2--4--|
E|--------------------------|--------------------------|



G|-----------------------------------------|------------------------|
D|-------------------------------------2-3-|--4----L----------------|
A|--5--------------------L---5-5----L------|---------------------0--|
E|-----------------------------------------|-----------2-2----L-----|

G|-------------------------|------------------------|-------------------------|
D|---------------------2-3-|--4----L----------------|---------------------2-3-|
A|--5----L---5-5----L------|---------------------0--|--5----L---5-5----L------|
E|-------------------------|-----------2-2----L-----|-------------------------|

G|------------------------|------------------------|--------------------------|
D|--4----L----------------|------------------------|--------------------------|
A|---------------------0--|--5----L---5-5----5--0--|--4--4--4--4--4--4--4-----|
E|-----------2-2----L-----|------------------------|--------------------------|



Leave your comments about this lesson