Oasis

Wonderwall

Wonderwall by Oasis Bass Tab and Video Lesson

84 BPM 84 BPM

Level: Easy

Genre:Rock

Instrument:4 String Bass

NOTES

How to play Wonderwall by Oasis in Bass Guitar.

G|--------------------------------------------------|
D|--------------------------------------------------|
A|----------------------------------0-2-2-2-0-2--0--|
E|--0--------------------0---0-0--------------------|

G|---------------------------|-----------------------------|
D|---------------------------|-----------------------------|
A|---------------------------|--7-7-7--7---0-2-2-2-0-2--0--|
E|--2--2--2---2-5-5-5--5---5-|-----------------------------|

G|---------------------------|-----------------------------|
D|---------------------------|-----------------------------|
A|---------------------------|-------------0-2-2-2-0-2--0--|
E|--2--2--2---2-5-5-5--5---5-|--0-0-0--0-------------------|

G|---------------------------|-----------------------------|
D|---------------------------|-----------------------------|
A|---------------------------|-------------0-2-2-2-0-2--0--|
E|--2--2--2---2-5-5-5--5---5-|--0-0-0--0-------------------|



Pre-Chorus

G|-----------------------------------------------|
D|-----------------------------------------------|
A|--5-----------------------5--5---5-7-7-7--7----|
E|-----------------------------------------------|

G|-----------------------------|--------------------------|
D|-----------------------------|--------------------------|
A|--9-9-9-9-9---7-9-9--7-9--9--|--5--5--5---5-5-7-7--7----|
E|-----------------------------|--------------------------|

G|----------------------------|-------------------------|----------------------|
D|----------------------------|-------------------------|--7----6----4----7----|
A|----------------------------|--5----5---5-7-7-7--7----|----------------------|
E|--2-2-2--2---0-2-2--0-2--2--|-------------------------|----------------------|

G|---------------------------|-----------------------------|
D|---------------------------|-----------------------------|
A|--2--2--2---0-2-2--0-2--2--|--0-2--0-2--0-2-L-2--0-2--2--|
E|---------------------------|-----------------------------|



G|-----------------------------------------------|
D|-----------------------------------------------|
A|--5-------------------5-5--5---7-9-9-9-7-9--9--|
E|-----------------------------------------------|

                                3x
G|------------------------------||-----------------------------|----------------|
D|-----------------------------*||-----------------------------|----------------|
A|--0-0-0--0---7-9-9-9-7-9--9--*||--5-5-5--5---7-9-9-9-7-9--9--|--0-0-0--0--9-9-|
E|------------------------------||-----------------------------|----------------|

G|-------------------|---------------------------|	
D|-------------------|---------------------------|
A|-------------------|-----------------------0---|
E|-------------------|-----------0-0---0---0---0-|



G|---------------------------------------------|
D|---------------------------------------------|
A|---------------------------------------------|
E|--2--------------------2--2---2-5-5-5--5---5-|

G|-------------------------------|---------------------------|
D|-------------------------------|---------------------------|
A|---------------0-2-2-2-0-2--0--|---------------------------|
E|--0-0---0-0--------------------|--2--2--2---2-5-5-5--5---5-|

G|-----------------------------|---------------------------|
D|-----------------------------|---------------------------|
A|--7-7-7--7---0-2-2-2-0-2--0--|---------------------------|
E|-----------------------------|--2--2--2---2-5-5-5--5---5-|

G|-----------------------------|---------------------------|
D|-----------------------------|---------------------------|
A|-------------0-2-2-2-0-2--0--|---------------------------|
E|--0-0-0--0-------------------|--2--2--2---2-5-5-5--5---5-|

G|-----------------------------|
D|-----------------------------|
A|-------------0-2-2-2-0-2--0--|
E|--0-0-0--0-------------------|



G|----------------------------------------------|
D|----------------------------------------------|
A|--5------------------5-5--5---7-9-9-9-7-9--9--|
E|----------------------------------------------|

G|------------------------------||----------------|---------------------|
D|-----------------------------*||----------------|---------------------|
A|--0-0-0--0---7-9-9-9-7-9--9--*||--0-0-0--0------|---------------2s----|
E|------------------------------||------------2-2-|--2------------------|

G|-------------------|-------------------|
D|-------------------|-------------------|
A|--9----------------|--L----------------|
E|-------------------|-------------------|



Leave your comments about this lesson