Paramore

The Only Exception

The Only Exception by Paramore Bass Tab and Video Lesson

Level: Easy

Genre:Alternative Rock

Instrument:4 String Bass

NOTES

How to play The Only Exception by Paramore in Bass Guitar.

G|----------------------------------------------------||----------------|
D|--14------------------------------------13----11----||*--9------------|
A|----------------------------------------------------||*---------------|
E|----------------------------------------------------||----------------|


G|---------------|---------------|-----------------|---------------|
D|--L------------|--9------------|--9----7----6----|---------------|
A|---------------|---------------|-----------------|--9------------|
E|---------------|---------------|-----------------|---------------|


G|---------------|---------------|-----------------||----------------|
D|---------------|---------------|----------------*||*--9------------|
A|--L------------|--7------------|--L--------9----*||*---------------|
E|---------------|---------------|-----------------||----------------|


G|---------------|---------------|-----------------|---------------|
D|--L------------|--9------------|--9----7----6----|---------------|
A|---------------|---------------|-----------------|--9------------|
E|---------------|---------------|-----------------|---------------|


G|----------------|---------------|----------------||-----------------|
D|----------------|---------------|---------------*||-----------------|
A|--11------------|--7------------|--7------------*||-----------------|
E|----------------|---------------|----------------||--0----0----0----|


G|-----------------||
D|-----------------||
A|-----------------||
E|--0----0----0----||



G|-----------------------------------------|---------------|---------------|
D|-----------------------------------------|--4------------|---------------|
A|--2--------------------------------------|---------------|--2------------|
E|-----------------------------------------|---------------|---------------|


G|---------------|---------------|---------------|---------------|
D|---------------|---------------|---------------|---------------|
A|--L------------|---------------|---------------|---------------|
E|---------------|--2------------|--L------------|--0------------|


G|-----------------||---------------||
D|----------------*||---------------||
A|-----------4----*||---------------||
E|--L--------------||--0------------||



G|-------------------------------------------------|---------------|
D|-------------------------------------------------|---------------|
A|--4------------------------------------4----4----|--4------------|
E|-------------------------------------------------|---------------|


G|--6--------------|----------------|-----------------|---------------|
D|-----6-----------|----------------|-----------------|---------------|
A|--------4--------|--4--------4----|--2----2----2----|--2------------|
E|-----------------|----------------|-----------------|---------------|


G|-----------------|---------------|-----------------|---------------|
D|-----------------|---------------|-----------------|---------------|
A|-----------2/----|--9------------|--4----4----4----|--4------------|
E|--2--------------|---------------|-----------------|---------------|


G|------------------|----------------|-----------------|---------------|
D|--6----4--6--L----|----------------|-----------------|---------------|
A|------------------|--4--------4----|--2----2----2----|--2------------|
E|------------------|----------------|-----------------|---------------|


G|-----------------|-----------------||
D|-----------------|--4----4---------||
A|--------------4--|------------2----||
E|--2--------L-----|-----------------||



Pre-Chorus

G|-------------------------------------------------------|---------------|
D|-------------------------------------------------------|---------------|
A|--4------------------------------------------4----4----|--4------------|
E|-------------------------------------------------------|---------------|


G|---------------|---------------|-----------------|---------------|
D|---------------|---------------|-----------------|---------------|
A|--4------------|--4------------|--2----2----2----|--2------------|
E|---------------|---------------|-----------------|---------------|


G|-----------------|---------------|-----------------|---------------|
D|-----------------|---------------|-----------------|---------------|
A|-----------2/----|--9------------|--4----4----4----|--4------------|
E|--2--------------|---------------|-----------------|---------------|


G|------------------|---------------|-----------------|---------------|
D|--6----4--6--L----|---------------|-----------------|---------------|
A|------------------|--4------------|--2----2----2----|--2------------|
E|------------------|---------------|-----------------|---------------|


G|---------------|---------------|-----------------|------------------|
D|---------------|---------------|-----------------|------------2/----|
A|---------------|---------------|-----------------|------------------|
E|--2------------|--2------------|--0----0----0----|--0----0----------|


G|----------------|----------------||
D|--14------------|---L------------||
A|----------------|----------------||
E|----------------|----------------||



G|----------------------------------------|---------------|---------------|
D|----------------------------------------|---------------|---------------|
A|----------------------------------------|---------------|---------------|
E|--5-------------------------------------|--5------------|--0------------|


G|---------------|---------------|---------------|---------------|---------------|
D|---------------|---------------|---------------|---------------|---------------|
A|---------------|--2------------|--L------------|--2------------|--L------------|
E|--0------------|---------------|---------------|---------------|---------------|


G|-----------------|-------------------|---------------|---------------||
D|-----------------|-------------------|---------------|---------------||
A|--/12------------|---L--------12\----|--7------------|--L------------||
E|-----------------|-------------------|---------------|---------------||



Leave your comments about this lesson