Patrice Rushen

Forget Me Nots

Forget Me Nots by Patrice Rushen Bass Tab and Video Lesson

Level: Easy

Genre:R&B

Instrument:4 String Bass

NOTES

How to play Forget Me Nots by Patrice Rushen in Bass Guitar.

G|------------------------------------------------------7--------|
D|------------------------------------------4--------------------|
A|------------------------------------------------5--------5---x-|
E|--2------------------------------------------5-----------------|

G|-----------------------------|-----------------7--------|
D|------------------------2h-4-|-----4------------------4-|
A|--7-----7\---x-4--4--4-------|-----------5--------5-----|
E|-----------------------------|--2-----5-----------------|

G|---------------------------------||---------------------------------|
D|--6p-4-6p-4-6\---x-------2h--4--*||--6p-4-6p-4-6\---x----2---4--2---|
A|-------------------4--4---------*||-------------------4----4------4-|
E|---------------------------------||---------------------------------|



G|------------------------------------------7-------------------|
D|--------------------------------------------------------------|
A|--5------------------------------------------5--5-----------5-|
E|--------------------------------------------------------------|

G|-----------------------------|---------------------------|
D|------------------------2h-4-|-----4----------------2h-4-|
A|--7-----7\---0-4--4--4-------|---------------------------|
E|-----------------------------|--2-----2--2---------------|

G|----------------------------|-----7-------------------|
D|--L-4------------x----------|-------------------------|
A|----------------------------|--5-----5--5-----------5-|
E|------2--4--5--L---4--2-----|-------------------------|

G|-----------------------------|---------------------------|
D|------------------------2h-4-|-----4----------------2h-4-|
A|--7-----7\---0-4--4--4-------|---------------------------|
E|-----------------------------|--2-----2--2---------------|

G|------------------------------||---------------------------|
D|--L-4------------x-----------*||-----4----------------2h-4-|
A|-------------------------x-x-*||---------------------------|
E|------2--4--5--L---4--2-------||--2-----2--2---------------|

G|----------------------------|
D|-----4----------------------|
A|----------------------------|
E|--2-----2--2-----2/--14\----|



Verse Variation

G|----------------------------------------------------7-------------------|
D|------------------------------------------------------------------------|
A|--5----------------------------------------------------5--5-----------5-|
E|------------------------------------------------------------------------|

G|-----------------------------|-------------------------|
D|------------------------2h-4-|-----4----------------4--|
A|--7-----7\---0-4--4--4-------|-------------------------|
E|-----------------------------|--2-----2--2-------------|

G|-----------------4b--4p-2----|
D|--------------------------4--|
A|-----------------------------|
E|--2--2--2--2-----------------|



Leave your comments about this lesson