Pink

Just Give Me a Reason

Just Give Me a Reason by Pink Bass Tab and Video Lesson

95 BPM 95 BPM

Level: Easy

Genre:Pop/Rock

Instrument:4 String Bass

NOTES

How to play Just Give Me a Reason by Pink in Bass Guitar.

                            
G|------------------------------------------------|------------------------|
D|------------------------------------------5-----|--4------4--L-----4-----|
A|---------------------------------------5-----5--|---------------5-----5--|
E|--3------------------------------3--L-----------|------------------------|

G|------------------------|------------------------||-------------------|
D|--2------2--2--0--------|-----------------------*||-------------------|
A|------------------3--2--|--L------2h--/5--------*||-------------------|
E|------------------------|------------------------||--3----------------|



G|-----------------------------------------------|----------------------|
D|-----------------------------------------------|------------2----0----|
A|-----------------------------------------0--2--|--3------3------------|
E|--3-----------------------------3--L--3--------|----------------------|

G|----------------------|-----------------------||---------------------|
D|----------------------|----------------------*||---------------------|
A|--3------3--L------5--|-----------------5----*||---------------------|
E|----------------------|--3------3--L----------||--3------3--L--------|



Pre-Chorus

G|-------------------------------------------------------|-------------------|
D|-------------------------------------------------------|-------------------|
A|--7---------------------------------7--7--5--4--L------|--5----------------|
E|-------------------------------------------------------|-------------------|

G|------------------------|-------------7-----7----|------------------------|
D|------------------------|---------/7-----7-------|------------------------|
A|--7--7--7--5--4--L------|--5---------------------|--7--7--7--5--4--L------|
E|------------------------|------------------------|------------------------|

G|--------------------|--------------------|--------------------|
D|--------------------|--------------------|--------------------|
A|--5--------2--------|--3--------2--------|--0------------2----|
E|--------------------|--------------------|--------------------|

G|-----------7--------|--7----------------|
D|--------------------|--7----------------|
A|--3-----------------|-------------------|
E|--------------------|-------------------|



G|------------------------------------------------|------------------------|
D|------------------------------------------------|------------------------|
A|--7------------------------------7--L--5--3--2--|--2------2--2--0--2--2--|
E|------------------------------------------------|------------------------|

G|------------------------|---------------------|------------------------|
D|------------------------|---------------------|------------------------|
A|--3------3--L--2--3--5--|--5------5--L--------|--7------7--L--5--3--2--|
E|------------------------|---------------------|------------------------|

G|------------------------|----------------------|---------------------|
D|------------------------|----------------------|---------------------|
A|--2------2--2--0--2--2--|--3------3--L----2----|--0------0--L--------|
E|------------------------|----------------------|---------------------|

G|--------------------|
D|--------------------|
A|--5--------5--------|
E|--------------------|



Leave your comments about this lesson