Rush

YYZ

YYZ by Rush Bass Tab and Video Lesson

Level: Advanced

Genre:Hard Rock

Instrument:4 String Bass

NOTES

How to play YYZ by Rush in Bass Guitar.

                                         8x
G|---5----5---5---5-----5--5--5--5-------||-------------------------------------|
D|*-----4-------------4-------------4-4-*||-------------------------------------|
A|*-------------------------------------*||--3----3---3---3-----3--3--3--3------|
E|---------------------------------------||-----2-------------2-------------2-2-|

G|--------------------------------------|
D|--------------------------------------|
A|--3----3---3---3-----3---3---3---3----|
E|--------------------------------------|



G|--------------------6-8-9-8--------|------------------------------|
D|--------------6-7-9---------9-10---|---L------9g10-9--------------|
A|--------6-7-9----------------------|-----------------10-9---------|
E|--8-8-9----------------------------|------------------------------|

    |-3-|                                                                        
G|--7-7-7----7-----------|----------------------|
D|--------10---10-9-7----|---------------12\----|
A|--------------------10-|--9-------------------|
E|-----------------------|----------------------|



B Part Slow

G|--------------------6-8-9-8--------|------------------------------|
D|--------------6-7-9---------9-10---|---L------9g10-9--------------|
A|--------6-7-9----------------------|-----------------10-9---------|
E|--8-8-9----------------------------|------------------------------|

    |-3-|                                                                        
G|--7-7-7----7-----------|----------------------|
D|--------10---10-9-7----|---------------12\----|
A|--------------------10-|--9-------------------|
E|-----------------------|----------------------|



G|---2-2---2-----------------|--2-2---2---------------------|
D|*------4---4-3-2-----------|------4---4-2-----------------|
A|*-----------------4--------|--------------4-3-2---4-L-----|
E|---------------------------|---------------------------2--|

G|--2-2---2-----------------|--2-2---2---------------------|
D|------4---4-3-2-----------|------4---4-2-----------------|
A|-----------------4--------|--------------4-3-2---4-L-----|
E|--------------------------|---------------------------2--|

G|--5-5---5-----------------|--5-5---5---------------------|
D|------7---7-6-5-----------|------7---7-5-----------------|
A|-----------------7--------|--------------7-6-5---7-L-----|
E|--------------------------|---------------------------5--|

G|--5-5---5-----------------|--5-5---5--------------------------||
D|------7---7-6-5-----------|------7---7-6-5---5-5---5-L-5-----*||
A|-----------------7--------|----------------7-----7-------7\--*||
E|--------------------------|-----------------------------------||

G|--5-5---5---------------------|
D|------7---7-5-----------------|
A|--------------7-6-5---7-L-----|
E|---------------------------5--|



C Part Slow

G|---2-2---2-----------------|--2-2---2---------------------|
D|*------4---4-3-2-----------|------4---4-2-----------------|
A|*-----------------4--------|--------------4-3-2---4-L-----|
E|---------------------------|---------------------------2--|

G|--2-2---2-----------------|--2-2---2---------------------|
D|------4---4-3-2-----------|------4---4-2-----------------|
A|-----------------4--------|--------------4-3-2---4-L-----|
E|--------------------------|---------------------------2--|

G|--5-5---5-----------------|--5-5---5---------------------|
D|------7---7-6-5-----------|------7---7-5-----------------|
A|-----------------7--------|--------------7-6-5---7-L-----|
E|--------------------------|---------------------------5--|

G|--5-5---5-----------------|--5-5---5--------------------------||
D|------7---7-6-5-----------|------7---7-6-5---5-5---5-L-5-----*||
A|-----------------7--------|----------------7-----7-------7\--*||
E|--------------------------|-----------------------------------||

G|--5-5---5---------------------|
D|------7---7-5-----------------|
A|--------------7-6-5---7-L-----|
E|---------------------------5--|



G|---------------2--------|--------------2-2---2-L-2-----|
D|*-----------------------|------------------4-------4---|
A|*--2---4-L--------------|-----2--4-------------------4-|
E|------------2-----------|-----------2------------------|

G|--------------2-2-2-2-2h-4---|--------------2-2---2-L-2-----|
D|-----------------------------|------------------4-------4---|
A|--2---4-L--------------------|-----2--4-------------------4-|
E|-----------2-----------------|-----------2------------------|

G|-----------5g7--5----5h-7---|--L--------7--5-5---5-L-5-----|
D|------5-L-------------------|--------5---------7-------7---|
A|--3-------------------------|-----3----------------------7-|
E|----------------------------|------------------------------|

G|-----------7--5S--9\--7--5--|--4s-5---5-------------------------|
D|------x-5-------------------|-------7---7-6-5---7-4---5-L-5-----|
A|--3-------------------------|-----------------7-----7-------7\--|
E|----------------------------|-----------------------------------|

G|-------------2--------|--------------2-2---2-L-2-----|
D|----------------------|------------------4-------4---|
A|--2----4--------------|-----2--4-------------------4-|
E|----------2-----------|-----------2------------------|

G|--------------2-2-2-2-2h-4---|--------------2-2---2-L-2-----|
D|-----------------------------|------------------4-------4---|
A|--2---4-L--------------------|-----2--4-------------------4-|
E|-----------2-----------------|-----------2------------------|

G|---------------7---5h-5----|-----------7--5-5---5-L-5-----|
D|------5-L--/7--------------|--------5---------7-------7---|
A|--3------------------------|-----3----------------------7-|
E|---------------------------|------------------------------|

G|-----------/7--5----5h-7---|--5--4--4g5--4----------------|
D|------5-L------------------|----------------7--5g4--3-----|
A|--3------------------------|---------------------------5--|
E|---------------------------|------------------------------|



D Part Slow

G|---------------2--------|--------------2-2---2-L-2-----|
D|*-----------------------|------------------4-------4---|
A|*--2---4-L--------------|-----2--4-------------------4-|
E|------------2-----------|-----------2------------------|

G|--------------2-2-2-2-2h-4---|--------------2-2---2-L-2-----|
D|-----------------------------|------------------4-------4---|
A|--2---4-L--------------------|-----2--4-------------------4-|
E|-----------2-----------------|-----------2------------------|

G|-----------5g7--5----5h-7---|--L--------7--5-5---5-L-5-----|
D|------5-L-------------------|--------5---------7-------7---|
A|--3-------------------------|-----3----------------------7-|
E|----------------------------|------------------------------|

G|-----------7--5S--9\--7--5--|--4s-5---5-------------------------|
D|------x-5-------------------|-------7---7-6-5---7-4---5-L-5-----|
A|--3-------------------------|-----------------7-----7-------7\--|
E|----------------------------|-----------------------------------|

G|-------------2--------|--------------2-2---2-L-2-----|
D|----------------------|------------------4-------4---|
A|--2----4--------------|-----2--4-------------------4-|
E|----------2-----------|-----------2------------------|

G|--------------2-2-2-2-2h-4---|--------------2-2---2-L-2-----|
D|-----------------------------|------------------4-------4---|
A|--2---4-L--------------------|-----2--4-------------------4-|
E|-----------2-----------------|-----------2------------------|

G|---------------7---5h-5----|-----------7--5-5---5-L-5-----|
D|------5-L--/7--------------|--------5---------7-------7---|
A|--3------------------------|-----3----------------------7-|
E|---------------------------|------------------------------|

G|-----------/7--5----5h-7---|--5--4--4g5--4----------------|
D|------5-L------------------|----------------7--5g4--3-----|
A|--3------------------------|---------------------------5--|
E|---------------------------|------------------------------|



E Part - Bass Solo

G|--------------2-2---2-L-2----|--------------2-2---2-L-2-----|
D|*-----------------4-------4--|--L---------------4-------4---|
A|*--2----4--------------------|-----2--4-------------------3-|
E|-----------2-----------------|-----------2------------------|

G|-----------5g7--5----7----|--5h-7----11-9----12---L----14----|
D|------5-L-----------------|-------10------11-----12----14----|
A|--3-----------------------|----------------------------------|
E|--------------------------|----------------------------------|

G|--------------2-2---2-L-2-2-4-|--L------------2-2---2-L-2-----|
D|------------------4-----------|-------------------4-------4---|
A|--2---2-4---------------------|-----2-2-4-------------------3-|
E|-----------2------------------|------------2------------------|

G|-----------5g7--5--5-5-5h-7-5-2-|--5------------------|
D|------5-L-----------------------|---------------------|
A|--3-----------------------------|---------------------|
E|--------------------------------|---------------------|

G|-------------2-2---2-L-2-2h-4-|--L-----------2-2---2-L-2-----|
D|-----------------4------------|------------------4-------4---|
A|--2----4----------------------|-----2--4-------------------3-|
E|----------2-------------------|-----------2------------------|

G|-----------/7--5---7-L--7h-8-|--5----7-5---5---4g5----5--------|
D|------5-L---------------7--8-|-----6-----7---7------7---7-6-5--|
A|--3--------------------------|---------------------------------|
E|-----------------------------|---------------------------------|

G|-------------2-----------|----------------2-2------------|
D|----------------4--2--4--|--4-4---------------4-4-2-2-4--|
A|--2----4-----------------|------2-2-4--------------------|
E|----------2--------------|-------------2-----------------|

G|-----------------------------7--|--5---------------------|
D|---------5------5s-7-5-x--------|------------------------|
A|--3--3-3----3-3----------5-5----|-----------------x-6\---|
E|--------------------------------|------------------------|

G|--------------------2-2----|--------------------2-2----|
D|------------------------4--|------------------------4--|
A|--2---2-4------------------|--2---2-4------------------|
E|-----------2--2--2---------|-----------2--2--2---------|

G|-----------5g7--L--5-----7--|--5-5-----6-7-9-12-11---9-7--15g16--|
D|------5-L-------------7-----|------7-9---------------------------|
A|--3-------------------------|------------------------------------|
E|----------------------------|------------------------------------|

             |---3---|                                                 
G|--14--12--11h-12p-11-------------------|-------------2-2---2-L-2----|
D|---------------------14\----5---9------|-----------------4-------4--|
A|----------------------------5---9--7\--|--2----4--------------------|
E|---------------------------------------|----------2-----------------|

G|--------------2-2---2-L-2-----|-----------5g7--5--5-5-5h-7-5---|
D|--L---------------4-------4---|------5-L---------------------7-|
A|-----2--4-------------------3-|--3-----------------------------|
E|-----------2------------------|--------------------------------|

G|--5------------------|----------------------|
D|---------------------|----------------------|
A|---------------------|----------------------|
E|---------------------|------------------5---|



E Part - Bass Solo Slow

G|--------------2-2---2-L-2----|--------------2-2---2-L-2-----|
D|*-----------------4-------4--|--L---------------4-------4---|
A|*--2----4--------------------|-----2--4-------------------3-|
E|-----------2-----------------|-----------2------------------|

G|-----------5g7--5----7----|--5h-7----11-9----12---L----14----|
D|------5-L-----------------|-------10------11-----12----14----|
A|--3-----------------------|----------------------------------|
E|--------------------------|----------------------------------|

G|--------------2-2---2-L-2-2-4-|--L------------2-2---2-L-2-----|
D|------------------4-----------|-------------------4-------4---|
A|--2---2-4---------------------|-----2-2-4-------------------3-|
E|-----------2------------------|------------2------------------|

G|-----------5g7--5--5-5-5h-7-5-2-|--5------------------|
D|------5-L-----------------------|---------------------|
A|--3-----------------------------|---------------------|
E|--------------------------------|---------------------|

G|-------------2-2---2-L-2-2h-4-|--L-----------2-2---2-L-2-----|
D|-----------------4------------|------------------4-------4---|
A|--2----4----------------------|-----2--4-------------------3-|
E|----------2-------------------|-----------2------------------|

G|-----------/7--5---7-L--7h-8-|--5----7-5---5---4g5----5--------|
D|------5-L---------------7--8-|-----6-----7---7------7---7-6-5--|
A|--3--------------------------|---------------------------------|
E|-----------------------------|---------------------------------|

G|-------------2-----------|----------------2-2------------|
D|----------------4--2--4--|--4-4---------------4-4-2-2-4--|
A|--2----4-----------------|------2-2-4--------------------|
E|----------2--------------|-------------2-----------------|

G|-----------------------------7--|--5---------------------|
D|---------5------5s-7-5-x--------|------------------------|
A|--3--3-3----3-3----------5-5----|-----------------x-6\---|
E|--------------------------------|------------------------|

G|--------------------2-2----|--------------------2-2----|
D|------------------------4--|------------------------4--|
A|--2---2-4------------------|--2---2-4------------------|
E|-----------2--2--2---------|-----------2--2--2---------|

G|-----------5g7--L--5-----7--|--5-5-----6-7-9-12-11---9-7--15g16--|
D|------5-L-------------7-----|------7-9---------------------------|
A|--3-------------------------|------------------------------------|
E|----------------------------|------------------------------------|

             |---3---|                                                 
G|--14--12--11h-12p-11-------------------|-------------2-2---2-L-2----|
D|---------------------14\----5---9------|-----------------4-------4--|
A|----------------------------5---9--7\--|--2----4--------------------|
E|---------------------------------------|----------2-----------------|

G|--------------2-2---2-L-2-----|-----------5g7--5--5-5-5h-7-5---|
D|--L---------------4-------4---|------5-L---------------------7-|
A|-----2--4-------------------3-|--3-----------------------------|
E|-----------2------------------|--------------------------------|

G|--5------------------|----------------------|
D|---------------------|----------------------|
A|---------------------|----------------------|
E|---------------------|------------------5---|



F Part - Guitar Solo

G|----------------------||-----------------------------|
D|----------------------||*---------------4-4---4------|
A|------------------0---||*--2-------2--L-----2---2----|
E|----------------------||--------------------------2--|

G|---------------------------|----------------------------|
D|---------------4-4---4-----|---------------5----5g7--5--|
A|--2-------2--L-----2----2--|--3-------3--L----3---------|
E|---------------------------|----------------------------|

G|--/9--7--5--4--4g5--4--------|----------------------------|
D|-----------------------7--5--|---------------4-4---4------|
A|-----------------------------|--2-------2--L-----2---2----|
E|-----------------------------|-------------------------2--|

G|---------------------------|----------------------------|
D|---------------4-4---4-----|---------------5----5g7--5--|
A|--2-------2--L-----2----2--|--3-------3--L----3---------|
E|---------------------------|----------------------------|

G|--9--7--5--4--5--5-----------|---------------------------|
D|-------------------7-5-------|---------------------------|
A|-----------------------7-5-3-|--2-------2--L-2----2---0--|
E|-----------------------------|------------------2---2----|

G|----------------------------|----------------------5--|
D|---------------4-4---4------|---------------5---------|
A|--2-------2--L-----2---2----|--3-------3--3-----3-----|
E|-------------------------2--|-------------------------|

G|--4--------7g9--L--7--5--4--|---------------------------|
D|-----7--5-------------------|---------------4-4---4-----|
A|----------------------------|--2-------2--L-----2-------|
E|----------------------------|------------------------2--|

G|---------------------------|-------------7--7--5--7--|--5-------------------|
D|---------------4-4---4-----|-------5--5--------------|--5-------------------|
A|--2-------2--L-----2----2--|--3----------------------|----------------------|
E|---------------------------|-------------------------|----------------------|



F Part - Guitar Solo Slow

G|----------------------||-----------------------------|
D|----------------------||*---------------4-4---4------|
A|------------------0---||*--2-------2--L-----2---2----|
E|----------------------||--------------------------2--|

G|---------------------------|----------------------------|
D|---------------4-4---4-----|---------------5----5g7--5--|
A|--2-------2--L-----2----2--|--3-------3--L----3---------|
E|---------------------------|----------------------------|

G|--/9--7--5--4--4g5--4--------|----------------------------|
D|-----------------------7--5--|---------------4-4---4------|
A|-----------------------------|--2-------2--L-----2---2----|
E|-----------------------------|-------------------------2--|

G|---------------------------|----------------------------|
D|---------------4-4---4-----|---------------5----5g7--5--|
A|--2-------2--L-----2----2--|--3-------3--L----3---------|
E|---------------------------|----------------------------|

G|--9--7--5--4--5--5-----------|---------------------------|
D|-------------------7-5-------|---------------------------|
A|-----------------------7-5-3-|--2-------2--L-2----2---0--|
E|-----------------------------|------------------2---2----|

G|----------------------------|----------------------5--|
D|---------------4-4---4------|---------------5---------|
A|--2-------2--L-----2---2----|--3-------3--3-----3-----|
E|-------------------------2--|-------------------------|

G|--4--------7g9--L--7--5--4--|---------------------------|
D|-----7--5-------------------|---------------4-4---4-----|
A|----------------------------|--2-------2--L-----2-------|
E|----------------------------|------------------------2--|

G|---------------------------|-------------7--7--5--7--|--5-------------------|
D|---------------4-4---4-----|-------5--5--------------|--5-------------------|
A|--2-------2--L-----2----2--|--3----------------------|----------------------|
E|---------------------------|-------------------------|----------------------|



G Part - Bridge

G|----------------------|-------------------|---------------------|
D|*---------------------|-------------------|---------------------|
A|*---------------------|-------------------|---------------------|
E|---5--------L------5--|--L----------------|--5--------L------5--|

G|-------------------|---------------------|-------------------|
D|-------------------|---------------------|-------------------|
A|-------------------|---------------------|-------------------|
E|--L----------------|--5--------L------5--|--L----------------|

G|-----------------------|-------------------|---------------------|
D|-----------------------|-------------------|---------------------|
A|-----------------------|-------------------|---------------------|
E|--5--------L---5-5--5--|--L----------------|--5--------L------5--|

G|---------------------|-----------------------|-------------------|
D|------------7--------|--L--------L-----------|-------------------|
A|---------------------|-----------------------|-------------------|
E|--L----5----L--------|--L--------L--5--5--5--|--L----------------|

G|---------------------|-------------------|-----------------------|
D|---------------------|-------------------|-----------7--7--7-----|
A|---------------------|-------------------|-----------------------|
E|--5--------L------5--|--L----------------|--5-----------------5--|

G|-------------------|-------------------------|
D|-------------------|-------------------------|
A|-------------------|---------------x\--------|
E|--L----------------|--L----------------------|



H Part - (D Part Variation)

G|-----------------------------|
D|-----2--3--5--3-3---2-L-2----|
A|--3---------------5-------5--|
E|-----------------------------|



                                               |----5---|             
G|--5--------9-9-7---7------------|----------------------------------|
D|--5--------------9---10----10-9-|--7-10------7---------------------|
A|------------------------10------|-------10-7---9-7-----------------|
E|--------------------------------|------------------10-8-7----------|

G|---------------------------|-----------------------|----|
D|---------------------------|-----------------4-2---|----|
A|--3--3----3--3-L-3---------|---------------------5-|--2-|
E|--------2-----------2-L----|--L------------L-------|----|



Final Slow

                                               |----5---|             
G|--5--------9-9-7---7------------|----------------------------------|
D|--5--------------9---10----10-9-|--7-10------7---------------------|
A|------------------------10------|-------10-7---9-7-----------------|
E|--------------------------------|------------------10-8-7----------|

G|---------------------------|-----------------------|----|
D|---------------------------|-----------------4-2---|----|
A|--3--3----3--3-L-3---------|---------------------5-|--2-|
E|--------2-----------2-L----|--L------------L-------|----|



Leave your comments about this lesson