Shuffler

I Heard It Through The Grapevine

I Heard It Through The Grapevine by Shuffler Bass Tab and Video Lesson

84 BPM 84 BPM

Level: Intermediate

Genre:Soul Music

Instrument:4 String Bass

NOTES

Learn to play I Heard It Through The Grapevine version by Shuffler in Bass Guitar.

G|-----------------------||---7-5--------------------------|
D|-----------------------||*------7-3g4-L------------------|
A|-----------------------||*---------------5--L-----3-5--x-|
E|---------------/14\----||-----------------------5--------|


  			         3x
G|----------------------------x--||--7-5--------------------------|
D|---------x-5-6-7--------------*||------7-3g4-L------------------|
A|--5----L---------7------------*||---------------5--L-----3-5--x-|
E|-------------------5-5---5-----||----------------------5--------|


G|-----------------------------||
D|------------x-7-5-7-7---7----||
A|--5----L---------------------||
E|-----------------------------||



G|---7-----5--------------------------|-----------------------------|
D|*----------7-3g4-L------------------|-----------------------5---6-|
A|*-------------------5--L-----3-5--x-|--5----L-----5---5-5---------|
E|---------------------------5--------|-----------5---5-------------|


G|-------------------------|-------------------------------x--||
D|--7----------7--6--5-----|------5---5----------------------*||
A|----------7--------------|----5---5---5--------------------*||
E|-------------------------|--------------3--1-1---x-3-3------||



G|---4-----------4-2---4---2---L----|--------------------------x-|
D|*------------4-----4--------------|--5------5-3----------------|
A|*---------------------------------|-------5-----5--------------|
E|----------------------------------|---------------3-L----L-----|


G|--4------4-2---4---2---L-----|------------------------------x-||
D|-------4-----4-------------x-|--5--3--5-3---------------------||
A|-----------------------------|------------5-----2---3---4-----||
E|-----------------------------|--------------3-----------------||



G|---7------5--------------------------|-----------------------------|
D|*-----------7-3g4-L------------------|-----------------------5---6-|
A|*--------------------5--L-----3-5--x-|--5----L-----5---5-5---------|
E|----------------------------5--------|-----------5---5-------------|


G|-------------------------|-------------------------------x--||
D|--7----------7--6--5-----|------5---5----------------------*||
A|----------7--------------|----5---5---5--------------------*||
E|-------------------------|--------------3--1-1---x-3-3------||


G|--7------7-5---7---5~--------|--7------7-5---------------|
D|-------7-----7---------------|-------7-----7-------------|
A|-----------------------------|---------------5-L---------|
E|-----------------------------|---------------------------|


G|--7------7-5---7---5~-------x-|--7------7-5-------------------x-||
D|-------7-----7----------------|-------7-----7-------------------||
A|------------------------------|---------------5---2---3---4-----||
E|------------------------------|---------------------------------||



Guitar Solo

G|---------------------|------------------------------|
D|---------------------|--------3-5--7------------7---|
A|-------------------x-|--5--5-----------7------7-----|
E|---------------------|-------------------5----------|


G|-------------------------------|------------------------------|
D|--------3-5--7-----------------|--------3-5--7------------7---|
A|--5--5-----------7---2---3---x-|--5--5-----------7------7-----|
E|-------------------5-----------|-------------------5----------|


G|-----------------4h-5-5p-4--------|-------------------------------|
D|--------3-5--7-------------7p-5-7-|--3-----3-5--7-----------------|
A|--5--5----------------------------|-----5-----------7---2---3---x-|
E|----------------------------------|-------------------5-----------|


G|------------------------------|------------------------------|
D|--------3-5--7------------7---|--------3-5--7------------7---|
A|--5--5-----------7------7-----|--5--5-----------7------7-----|
E|-------------------5----------|-------------------5----------|


G|---------------------------------------||
D|--------3-5--7-7-7-7-7-7-7-7-7-7-7-7-7-||
A|--5--5---------------------------------||
E|---------------------------------------||



Leave your comments about this lesson