Simply Red

Holding Back The Years

Holding Back The Years by Simply Red Bass Tab and Video Lesson

Level: Beginner

Genre:R&B

Instrument:4 String Bass

NOTES

How to play Holding Back The Years by Simply Red in Bass Guitar.

Intro, Verse and Final

G|-------------------------|------------------------|-------------------------|
D|-------------------4-----|-----------------7g8----|-------------------4-----|
A|--6-----4--8--6----------|--------------6---------|--6-----4--8--6----------|
E|-----6----------------4--|--L--------4------------|-----6----------------4--|

G|--------------------------|-------------------------|------------------------|
D|--------------------------|-------------------4-----|-----------------7g8----|
A|--------------------------|--6-----4--8--6----------|--------------6---------|
E|--L--4--4------6-4-2--4-6-|-----6----------------4--|--L--------4------------|

G|-------------------------|------------------------|-------------------------|
D|-------------------4-----|------------------------|-------------------4-----|
A|--6-----4--8--6----------|------------------------|--6-----4--8--6----------|
E|-----6----------------4--|--L--4--4------6-4-2----|-----6----------------4--|

G|------------------------|-------------------------|---------------------------|
D|-----------------7g8----|-------------------4-----|-----------------------8-x-|
A|--------------6---------|--6-----4--8--6----------|--------------------6------|
E|--L--------4------------|-----6----------------4--|--L--4-----4-----4---------|

G|-------------------------|-------------------------|------------------------|
D|-------------------------|-------------------4-----|-----------------7g8----|
A|-------------------------|--6-----4--8--6----------|--------------6---------|
E|-----4-----4-----4--2----|-----6----------------4--|--L--------4------------|

G|-------------------------|--------------------------|-------------------------|
D|-------------------4-----|--------------------------|-------------------4-----|
A|--6-----4--8--6----------|--------------------------|--6-----4--8--6----------|
E|-----6----------------4--|--L--4--4------6-4-2--4-6-|-----6----------------4--|

G|------------------------|-------------------------|
D|-----------------7g8----|--------------------8----|
A|--------------6---------|-----------------6-------|
E|--L--------4------------|--4--4-----4-------------|



G|-------------------------|-----------------------|-------------------------|
D|-------------------------|-----------------------|-------------------------|
A|--6--------6--L-------6--|-----------------------|--6-----------6-------6--|
E|-----6--4----------6-----|--4--4-----4-----------|-----6--4--2-------6-----|

G|--------------------------|---------------------------|
D|--------------------------|---------------------------|
A|--------------------6-----|---------------------------|
E|--4--4-----4------6-------|--4--4-----4-----6-4-2--6--|



G|-------------------------|------------------------|-------------------------|
D|-------------------4-----|-----------------7g8----|-------------------4-----|
A|--6-----4--8--6----------|--------------6---------|--6-----4--8--6----------|
E|-----6----------------4--|--L--------4------------|-----6----------------4--|

G|--------------------------|-------------------------|------------------------|
D|--------------------------|-------------------4-----|-----------------7g8----|
A|--------------------------|--6-----4--8--6----------|--------------6---------|
E|--L--4--4------6-4-2--4-6-|-----6----------------4--|--L--------4------------|

G|-------------------------|---------------------------|
D|-------------------4-----|-----------------------8-x-|
A|--6-----4--8--6----------|--------------------6------|
E|-----6----------------4--|--L--4-----4-----4---------|

G|----------------------------|-------------------------|------------------------|
D|----------------------------|-------------------4-----|-----------------7g8----|
A|----------------------------|--6-----4--8--6----------|--------------6---------|
E|-----4-----4-----6-4-2--4-6-|-----6----------------4--|--L--------4------------|

G|-------------------------|--------------------------|-------------------------|
D|-------------------4-----|--------------------------|-------------------4-----|
A|--6-----4--8--6----------|--------------------------|--6-----4--8--6----------|
E|-----6----------------4--|--L--4--4------6-4-2--4-6-|-----6----------------4--|

G|------------------------|-------------------------|---------------------------|
D|-----------------7g8----|-------------------4-----|-----------------------8-x-|
A|--------------6---------|--6-----4--8--6----------|--------------------6------|
E|--L--------4------------|-----6----------------4--|--L--4-----4-----4---------|

G|-------------------------|
D|-------------------------|
A|-------------------------|
E|-----4-----4-----4--2----|



G|-------------------------|-------------------------|
D|-------------------------|-------------------------|
A|--6--------6--L-------6--|-------------------------|
E|-----6--4----------6-----|--4--4-----4-----------x-|

G|-------------------------|-------------------------|-------------------------|
D|-------------------------|-------------------------|-------------------------|
A|--6-----------6-------6--|-------------------------|--6--------6--L-------6--|
E|-----6--4--2-------6-----|--4--4-----4-----------x-|-----6--4----------6-----|

G|-------------------------|-------------------------|--------------------------|
D|-------------------------|-------------------------|--------------------------|
A|-------------------------|--6-----------6-------6--|--------------------6-----|
E|--4--4-----4-----------x-|-----6--4--2-------6-----|--4--4-----4------6-------|

G|---------------------------|
D|---------------------------|
A|---------------------------|
E|--4--4-----4-----6-4-2--6--|



Trumpet Solo

G|-------------------------|------------------------|-------------------------|
D|-------------------4-----|-----------------7g8----|-------------------4-----|
A|--6-----4--8--6----------|--------------6---------|--6-----4--8--6----------|
E|-----6----------------4--|--L--------4------------|-----6----------------4--|

G|--------------------------|--------------------------|
D|-----------------------8--|--------------------8--6--|
A|--------------------6-----|-----------------6--------|
E|--L--4-----4-----4--------|-----4-----4--------------|

G|--------------------------|--------------------------|
D|--------------------------|--------------------------|
A|--------------------------|--------------------------|
E|-----4-----4-----4--2--4--|--L--4-----4-----4--2--6--|



G|-------------------------|-------------------------|
D|-------------------------|-------------------------|
A|--6--------6--L-------6--|-------------------------|
E|-----6--4----------6-----|--4--4-----4-----------x-|

G|-------------------------|-------------------------|-------------------------|
D|-------------------------|-------------------------|-------------------------|
A|--6-----------6-------6--|-------------------------|--6--------6--L-------6--|
E|-----6--4--2-------6-----|--4--4-----4-----------x-|-----6--4----------6-----|

G|-------------------------|-------------------------|--------------------------|
D|-------------------------|-------------------------|--------------------------|
A|-------------------------|--6-----------6-------6--|--------------------6-----|
E|--4--4-----4-----------x-|-----6--4--2-------6-----|--4--4-----4------6-------|

G|----------------------------|---------------------------|
D|--------------------7g8--6--|---------------------------|
A|-----------------6----------|---------------------------|
E|--4--4-----4----------------|--4--4-----4-----6-4-2--6--|



Leave your comments about this lesson