Slash

Shadow Life

Shadow Life by Slash Bass Tab and Video Lesson

122 BPM 122 BPM

Level: Intermediate

Genre:Hard Rock

Instrument:4 String Bass

NOTES

Learn to play on bass guitar "Shadow Life" by Slash (feat. Myles Kennedy & The Conspirators)

F#|----------------------|----------------------|----------------------|
C#|------------------6s--|--11------------L--2--|--L------------Ls--7--|
G#|----------------------|----------------------|----------------------|
D#|----------------------|----------------------|----------------------|


F#|---------------------|---------------------|---------------------|
C#|--L------------L--6--|--L------------------|---------------------|
G#|---------------------|---------3------L----|--4------------L--7--|
D#|---------------------|---------------------|---------------------|


F#|----------------------|-----------------------|--------------------|
C#|----------------------|-----------------------|--------------------|
G#|--L------------L--12--|---L-------------L\----|-----------2--------|
D#|----------------------|-----------------------|--0-----------------|


F#||-----------------------------|----------------------------|
C#||*----------------------------|----------------------------|
G#||*--4---3-L-----2-------------|--4---3-L-----2-------------|
D#||------------4------2-L-2-3-4-|-----------4------2-L-2-3-4-|


F#|----------------------------|--------------------------||
C#|----------------------------|--------------------2----*||
G#|--4---3-L-----2-------------|--4---3-L-----2----------*||
D#|-----------4------2-L-2-3-4-|-----------4-----4--------||


F#|------------------------||
C#|------------------------||
G#|-----------4------------||
D#|--4---3-L-----2----0----||



F#|---------------------------|--------------------------|
C#|---------------------------|--------------------------|
G#|-------------------4-2-----|------------------4-2-----|
D#|--9-----L\-------------4-2-|--0--0----------------4-3-|


F#|--------------------------|----------------------||--------------------||
C#|--------------------------|---------------------*||--------------------||
G#|------------------4-2-----|---------------------*||--------------------||
D#|--2--2----------------3-4-|--5--------7----0-----||--5--------7--------||



Pre-Chorus

F#|----------------------------------|--------------------------|
C#|----------------------------------|--------------------------|
G#|--0----------0--0--0--0--0--0--0--|--2--2--2--2--2--2-----2--|
D#|----------------------------------|--------------------4-----|


F#|--------------------------|---------------------------|
C#|--------------------------|---------------------------|
G#|--4--4--4--2--4--2--------|---------------9-----7-----|
D#|--------------------4--3--|--2--2--2--2/-----9-----9--|


F#|--------------------------|------------------------||
C#|--------------------------|--------------9---------||
G#|--------------------------|------6-L--9------------||
D#|--5--5--5--5--5--5--5--5--|--7---------------------||



F#|------------------------------|--------------------------|
C#|------------------------------|--------------------------|
G#|--4------4--4--4--4--4--4--4--|--------------------------|
D#|------------------------------|--0--0--0--0--0--0--0--0--|


F#|--------------------------|-------------------------|--------------------------|
C#|--------------------------|-------------------------|--------------------------|
G#|--------------------------|--------------3--3--6----|--4--4--4--4--4--4--4-----|
D#|--5--5--5--5--5--5--5--5--|--4--4--4--4-------------|-----------------------2--|


F#|--------------------------|--------------------------|--------------------|
C#|--------------------------|--------------------------|--------------------|
G#|--------------------------|--------------------------|-----------2--------|
D#|--0--0--0--0--0--0--0--4--|--5--5--5--5--5--5--5--2--|--0-----------------|


F#|----------------------------|----------------------------|
C#|----------------------------|----------------------------|
G#|--4---3-L-----2-------------|--4---3-L-----2-------------|
D#|-----------4------2-L-2-3-4-|-----------4------2-L-2-3-4-|


F#|----------------------------|------------------------||
C#|----------------------------|------------------------||
G#|--4---3-L-----2-------------|-----------4------------||
D#|-----------4------2-L-2-2-3-|--4---3-L-----2----0----||



Special and Guitar Solo

F#|--------------------------------------------|-----------------------|
C#|--------------------------------------------|-----------------------|
G#|--------------------------------------------|-----------------------|
D#|--4-----------------------4--4\-------------|--5--5--5\-------------|


F#|-----------------------|------------------------|--------------------------|
C#|-----------------------|------------------------|--------------------------|
G#|--4--4--4\-------------|------------------------|--0--0--0--0--0--------0--|
D#|-----------------------|--2--2-------4--4-------|-----------------0--2-----|


F#|--------------------------|--------------------------|
C#|--------1--4--------2-----|--------------------------|
G#|--2--2--------3--3-----3--|--4--4--4--4--4--4--4--2--|
D#|--------------------------|--------------------------|


F#|--------------------------|---------------------------|
C#|--------------------------|---------------------------|
G#|--0--0--0--0--0--0--------|---------------------------|
D#|--------------------4--4--|--2--2--2--2--2--2--2--2/--|


F#|-------------------------|---------------------------|
C#|-------------------------|---------------------------|
G#|--7--7--7--7--6--6--2----|--4--4--4--4--4--4--4--4/--|
D#|-------------------------|---------------------------|


F#|----------------------------------|--------------------------|
C#|----------------------------------|--------------------------|
G#|--12--12--12--12--12--12--11--11--|--9--9--9--9--9--9--9--9--|
D#|----------------------------------|--------------------------|


F#|--------------------------|--------------------------|
C#|--------------------------|--------------------------|
G#|--7--7--7--7--6--6--6--6--|--0--0--0--0--0--0--0--0--|
D#|--------------------------|--------------------------|


F#|--------------------------|--------------------------|
C#|--------------------------|--------------------------|
G#|--------------------2-----|--4--4--4--2--4--2--------|
D#|--4--4--4--4--4--4-----4--|--------------------4--3--|


F#|---------------------------|--------------------------|
C#|---------------------------|--------------------------|
G#|---------------9-----7-----|--------------------------|
D#|--2--2--2--2/-----9-----9--|--5--5--5--5--5--5--2--0--|


F#|------------------------||
C#|--------------9\--------||
G#|------6-L--9------------||
D#|--7---------------------||



F#|------------------------------|----------------------------|
C#|------------------------------|----------------------------|
G#|--4-----3-L-----2-------------|--4---3-L-----2-------------|
D#|-------------4------2-L-2-3-4-|-----------4------2-L-2-3-4-|


F#|----------------------------|-------------------------|
C#|----------------------------|--------------------2----|
G#|--4---3-L-----2-------------|--4---3-L-----2----------|
D#|-----------4------2-L-2-3-4-|-----------4-----4-------|


F#|----------------------------|----------------------------|
C#|----------------------------|----------------------------|
G#|--4---3-L-----2-------------|--4---3-L-----2-------------|
D#|-----------4------2-L-2-3-4-|-----------4------2-L-2-3-4-|


F#|--------------------------|------------------------|-------------------||
C#|--------------------------|------------------------|-------------------||
G#|--4---3-L-----2-----------|-----------4------------|--4----------------||
D#|-----------4------2-L--3--|--4---3-L-----2----0----|-------------------||



Leave your comments about this lesson