Supertramp

Give a Little Bit

Give a Little Bit by Supertramp Bass Tab and Video Lesson

Level: Easy

Genre:Pop/Rock

Instrument:4 String Bass

NOTES

How to play Give a Little Bit by Supertramp in Bass Guitar.

G|-----------------------------------------------||----------------------|
D|-----------------------------------------------||*---------------------|
A|-----------------------------------------------||*--5----------------4-|
E|------------------------------------------5----||----------------5-----|

G|-----------------------|-----------------------|------------------------||
D|-----------------------|-----------------------|-----------------------*||
A|--5--------L---5-----5-|-----------------------|-----------------------*||
E|-----------------3-----|--5--------L---2-3---2-|--5--------L---2-3---2--||

G|---------------------|---------------------|----------------------|
D|------------------0--|--2------------2-4---|--5------------L------|
A|--2------------L-----|---------------------|----------------------|
E|---------------------|---------------------|------------------2/--|

G|------------------------|----------------------------|
D|------------------------|----------------7----7------|
A|------------------------|----------------------------|
E|--5----------5----------|--5-----5-----5----5----5\--|



G|----------------------------------------------------------------|
D|----------------------------------------------------------------|
A|----------------------------------------------------------------|
E|--2-----------------------------------------------2-0-2---------|

G|--------------------------|--------------------------|
D|-----------------2--L--4--|--------------------------|
A|--2---4-L--5--L-----------|--------------------------|
E|--------------------------|--2---------2-0-2---------|

G|--------------------------|--------------------------|-------------------------|
D|--------------------------|--------------------------|-------------------------|
A|--2---4-L--5--L--4--L--2--|--------------------------|----------2--L--0--L-----|
E|--------------------------|--2---------2-0-2---------|--3----L--------------3--|

G|-------------------------|--------------------------|--------------------------|
D|-------------------------|--------------------7--7--|--------------7----7------|
A|--3----L-----------------|---------------7h-9-------|--------------------------|
E|----------2--3----L--2/--|--5-----------------------|--5---------------------0-|

G|--------------------------|--------------7----6------|
D|--------------------7-----|----------------------7\--|
A|---------------7h-9-------|--------------------------|
E|--5---------------------0-|--5-----------------------|

G|--------------------------|------------------------|
D|--------------------7-----|--------------7----7----|
A|---------------7h-9-------|------------------------|
E|--5---------------------0-|--5---------------------|



Final Part 1

G|-----------------------------------------------------------------------|
D|-----------------------------------------------------------------------|
A|--5------------------------------------------------5-------5---5-------|
E|-----------------------------------------------------5-----------5-----|

G|----------------------------|--------------------------|
D|--------------------4-5-7/--|--12--------12---L--------|
A|--5---5-------5---5---------|--------------------------|
E|--------5-------------------|--------------------------|

G|-------------------------------------||--11-12---11------------------------|
D|--9h-10---9-------------------------*||---------------9-12---L----12-------|
A|--------------10--------------------*||------------------------------12\---|
E|-----------------10---L-----L--10\---||------------------------------------|

G|--------------------------|----------------------------|
D|--------------------------|--------------------4-5-7/--|
A|--5---5-------5---5-------|--5---5-------5---5---------|
E|--------5-----------5-----|--------5-------------------|

G|-------------------------------|---------------------------|
D|--12--------12---L-----L-------|-------------------4-5-7/--|
A|--------------------------12\--|--5--------5--L------------|
E|-------------------------------|---------------------------|



Final Part 2

G|----------------------------------------------------------------------------|
D|--12-----------------------------------------------------12---L-----L-------|
A|-----------------------------------------------------------------------12\--|
E|----------------------------------------------------------------------------|

G|--------------------------|-------------------------------|
D|----------------------5/--|--12--------12---L-----L-------|
A|--5--------5--L----L------|--------------------------12\--|
E|--------------------------|-------------------------------|

G|---------------------------|--------------------------|------------------------|
D|-------------------4-5-7/--|--10-------------L-----10-|--9-------------L-----9-|
A|--5--------5--L------------|--------------------10----|-------------------10---|
E|---------------------------|--------------------------|------------------------|

G|--------------------|-----------------------|
D|--7--------5--------|--4---2-L-----0--------|
A|--------------------|-----------0-----------|
E|--------------------|-----------------------|



Leave your comments about this lesson