The Four Tops

It's The Same Old Song

It's The Same Old Song by The Four Tops Bass Tab and Video Lesson

126 BPM 126 BPM

Level: Intermediate

Genre:R&B

Instrument:4 String Bass

NOTES

Learn how to play It's The Same Old Song by The Four Tops in Bass Guitar.

G|-----------------------------|--------------------------|
D|-----------2-----------------|--------2-----------------|
A|--3-----5--------------------|--3--5--------------------|
E|--------------5-----5--3--5--|-----------5-----5--3--5--|

   
G|--------------------------|--------------------------||
D|--------2-----------------|--------2-----------------||
A|--3--5--------------------|--3--5--------------------||
E|-----------5-----5--3--5--|-----------5-----5--3--5--||



G|-----------------------------|--------------------------|
D|-----------2-----------------|--------2-----------------|
A|--3-----5--------------------|--3--5--------------------|
E|--------------5-----5--3--5--|-----------5-----5--3--5--|

						      3x
G|--------------------------|--------2-----------4------||
D|-----2--3-----------------|--3--5-----0--5--7-----5--*||
A|--5--------5-----5-----5--|--------------------------*||
E|--------------------5-----|---------------------------||



Verse - Slow

G|-----------------------------|--------------------------|
D|-----------2-----------------|--------2-----------------|
A|--3-----5--------------------|--3--5--------------------|
E|--------------5-----5--3--5--|-----------5-----5--3--5--|

						      3x
G|--------------------------|--------2-----------4------||
D|-----2--3-----------------|--3--5-----0--5--7-----5--*||
A|--5--------5-----5-----5--|--------------------------*||
E|--------------------5-----|---------------------------||



G|------------------------------|--------4-----------------|
D|------------2-----------------|--5--7-----5-----5-----5--|
A|--3------5--------------------|--------------------5-----|
E|---------------5-----5--3--5--|--------------------------|

    
G|--------------------------|--------4-----------2------||
D|-----2--3-----------------|--5--7-----5--3--5-----0--*||
A|--5--------5-----5-----5--|--------------------------*||
E|--------------------5-----|---------------------------||

  
G|--------------------------|--------------------------||
D|--------2-----------------|--------2-----------------||
A|--3--5--------------------|--3--5--------------------||
E|-----------5-----5--3--5--|-----------5-----5--3--5--||



Chorus - Slow

G|------------------------------|--------4-----------------|
D|------------2-----------------|--5--7-----5-----5-----5--|
A|--3------5--------------------|--------------------5-----|
E|---------------5-----5--3--5--|--------------------------|

    
G|--------------------------|--------4-----------2------||
D|-----2--3-----------------|--5--7-----5--3--5-----0--*||
A|--5--------5-----5-----5--|--------------------------*||
E|--------------------5-----|---------------------------||

  
G|--------------------------|--------------------------||
D|--------2-----------------|--------2-----------------||
A|--3--5--------------------|--3--5--------------------||
E|-----------5-----5--3--5--|-----------5-----5--3--5--||



G|--------------------------------|--------4-----------------|
D|--------------2-----------------|--5--7-----5-----5-----5--|
A|--3--------5--------------------|--------------------5-----|
E|-----------------5-----5--3--5--|--------------------------|

 
G|--------------------------|--------4-----------2------||
D|-----2--3-----------------|--5--7-----5--3--5-----3--*||
A|--5--------5-----5-----5--|--------------------------*||
E|--------------------5-----|---------------------------||



Sax Solo - Slow

G|--------------------------------|--------4-----------------|
D|--------------2-----------------|--5--7-----5-----5-----5--|
A|--3--------5--------------------|--------------------5-----|
E|-----------------5-----5--3--5--|--------------------------|

 
G|--------------------------|--------4-----------2------||
D|-----2--3-----------------|--5--7-----5--3--5-----3--*||
A|--5--------5-----5-----5--|--------------------------*||
E|--------------------5-----|---------------------------||



Leave your comments about this lesson